ISO-10303-21;
HEADER;
FILE_DESCRIPTION (( 'STEP AP203' ),
    '1' );
FILE_NAME ('977542.step',
    '2021-12-07T09:17:57',
    ( '' ),
    ( '' ),
    'SwSTEP 2.0',
    'SolidWorks 2019',
    '' );
FILE_SCHEMA (( 'CONFIG_CONTROL_DESIGN' ));
ENDSEC;

DATA;
#1 = FACE_OUTER_BOUND ( 'NONE', #163, .T. ) ;
#2 = CARTESIAN_POINT ( 'NONE',  ( 0.0000000000000000000, 0.0000000000000000000, 0.0000000000000000000 ) ) ;
#3 = PRODUCT_RELATED_PRODUCT_CATEGORY ( 'detail', '', ( #50 ) ) ;
#4 = DATE_TIME_ROLE ( 'classification_date' ) ;
#5 = ORGANIZATION ( 'UNSPECIFIED', 'UNSPECIFIED', '' ) ;
#6 = EDGE_CURVE ( 'NONE', #52, #52, #114, .T. ) ;
#7 = APPROVAL_DATE_TIME ( #160, #78 ) ;
#8 = ORIENTED_EDGE ( 'NONE', *, *, #106, .T. ) ;
#9 = CC_DESIGN_PERSON_AND_ORGANIZATION_ASSIGNMENT ( #166, #151, ( #25 ) ) ;
#10 = CC_DESIGN_PERSON_AND_ORGANIZATION_ASSIGNMENT ( #89, #61, ( #91 ) ) ;
#11 = DATE_AND_TIME ( #98, #164 ) ;
#12 = DIRECTION ( 'NONE',  ( -3.491481338843133355E-15, 1.224646799147353207E-16, -1.000000000000000000 ) ) ;
#13 = CARTESIAN_POINT ( 'NONE',  ( 3.491481338843132566E-15, 31.50000000000000000, 1.000000000000000000 ) ) ;
#14 = FACE_OUTER_BOUND ( 'NONE', #142, .T. ) ;
#15 = AXIS2_PLACEMENT_3D ( 'NONE', #144, #107, #168 ) ;
#16 = CARTESIAN_POINT ( 'NONE',  ( 0.0000000000000000000, 0.0000000000000000000, 0.0000000000000000000 ) ) ;
#17 = COORDINATED_UNIVERSAL_TIME_OFFSET ( 1, 0, .AHEAD. ) ;
#18 = PERSON_AND_ORGANIZATION_ROLE ( 'creator' ) ;
#19 = DATE_AND_TIME ( #139, #62 ) ;
#20 = PERSON ( 'UNSPECIFIED', 'UNSPECIFIED', 'UNSPECIFIED', ('UNSPECIFIED'), ('UNSPECIFIED'), ('UNSPECIFIED') ) ;
#21 = EDGE_LOOP ( 'NONE', ( #103 ) ) ;
#22 = DIRECTION ( 'NONE',  ( -3.491481338843133355E-15, 1.224646799147353207E-16, -1.000000000000000000 ) ) ;
#23 = APPLICATION_PROTOCOL_DEFINITION ( 'international standard', 'config_control_design', 1994, #88 ) ;
#24 = VERTEX_POINT ( 'NONE', #13 ) ;
#25 = SECURITY_CLASSIFICATION ( '', '', #116 ) ;
#26 = DIRECTION ( 'NONE',  ( -3.491481338843133355E-15, 1.224646799147353207E-16, -1.000000000000000000 ) ) ;
#27 = EDGE_CURVE ( 'NONE', #24, #24, #37, .T. ) ;
#28 = DIRECTION ( 'NONE',  ( 4.275831445896958607E-31, 1.000000000000000000, 1.224646799147353207E-16 ) ) ;
#29 = CLOSED_SHELL ( 'NONE', ( #95, #147, #65, #82 ) ) ;
#30 = PERSON_AND_ORGANIZATION_ROLE ( 'creator' ) ;
#31 = COORDINATED_UNIVERSAL_TIME_OFFSET ( 1, 0, .AHEAD. ) ;
#32 = AXIS2_PLACEMENT_3D ( 'NONE', #77, #26, #56 ) ;
#33 = EDGE_LOOP ( 'NONE', ( #8 ) ) ;
#34 = FACE_OUTER_BOUND ( 'NONE', #130, .T. ) ;
#35 = PERSON_AND_ORGANIZATION ( #20, #5 ) ;
#36 = CARTESIAN_POINT ( 'NONE',  ( 6.842277657836020854E-46, 8.000000000000000000, 0.0000000000000000000 ) ) ;
#37 = CIRCLE ( 'NONE', #134, 31.50000000000000000 ) ;
#38 =( NAMED_UNIT ( * ) SI_UNIT ( $, .STERADIAN. ) SOLID_ANGLE_UNIT ( ) );
#39 = PERSON_AND_ORGANIZATION ( #20, #5 ) ;
#40 = VERTEX_POINT ( 'NONE', #79 ) ;
#41 = CC_DESIGN_PERSON_AND_ORGANIZATION_ASSIGNMENT ( #75, #18, ( #91 ) ) ;
#42 = AXIS2_PLACEMENT_3D ( 'NONE', #73, #12, #133 ) ;
#43 = APPLICATION_CONTEXT ( 'configuration controlled 3d designs of mechanical parts and assemblies' ) ;
#44 = CC_DESIGN_APPROVAL ( #78, ( #87 ) ) ;
#45 = ORIENTED_EDGE ( 'NONE', *, *, #27, .F. ) ;
#46 = UNCERTAINTY_MEASURE_WITH_UNIT (LENGTH_MEASURE( 1.000000000000000082E-05 ), #93, 'distance_accuracy_value', 'NONE');
#47 = CC_DESIGN_DATE_AND_TIME_ASSIGNMENT ( #131, #157, ( #87 ) ) ;
#48 = APPROVAL_DATE_TIME ( #11, #156 ) ;
#49 = FACE_OUTER_BOUND ( 'NONE', #102, .T. ) ;
#50 = PRODUCT ( '977542', '977542', '', ( #63 ) ) ;
#51 = APPLICATION_PROTOCOL_DEFINITION ( 'international standard', 'config_control_design', 1994, #43 ) ;
#52 = VERTEX_POINT ( 'NONE', #146 ) ;
#53 = APPROVAL_STATUS ( 'not_yet_approved' ) ;
#54 = PLANE ( 'NONE',  #32 ) ;
#55 = APPROVAL_DATE_TIME ( #161, #69 ) ;
#56 = DIRECTION ( 'NONE',  ( 4.275831445896958607E-31, 1.000000000000000000, 1.224646799147353207E-16 ) ) ;
#57 = AXIS2_PLACEMENT_3D ( 'NONE', #16, #159, #90 ) ;
#58 = ORIENTED_EDGE ( 'NONE', *, *, #6, .T. ) ;
#59 = ORIENTED_EDGE ( 'NONE', *, *, #6, .F. ) ;
#60 = FACE_BOUND ( 'NONE', #33, .T. ) ;
#61 = PERSON_AND_ORGANIZATION_ROLE ( 'design_supplier' ) ;
#62 = LOCAL_TIME ( 10, 17, 57.00000000000000000, #85 ) ;
#63 = MECHANICAL_CONTEXT ( 'NONE', #88, 'mechanical' ) ;
#64 = DIRECTION ( 'NONE',  ( 4.275831445896958607E-31, 1.000000000000000000, 1.224646799147353207E-16 ) ) ;
#65 = ADVANCED_FACE ( 'NONE', ( #60, #49 ), #162, .T. ) ;
#66 = CARTESIAN_POINT ( 'NONE',  ( 0.0000000000000000000, 0.0000000000000000000, 0.0000000000000000000 ) ) ;
#67 = CALENDAR_DATE ( 2021, 7, 12 ) ;
#68 = EDGE_LOOP ( 'NONE', ( #86 ) ) ;
#69 = APPROVAL ( #109, 'UNSPECIFIED' ) ;
#70 = DIRECTION ( 'NONE',  ( 4.275831445896958607E-31, 1.000000000000000000, 1.224646799147353207E-16 ) ) ;
#71 = DIRECTION ( 'NONE',  ( -3.491481338843133355E-15, 1.224646799147353207E-16, -1.000000000000000000 ) ) ;
#72 = ADVANCED_BREP_SHAPE_REPRESENTATION ( '977542', ( #81, #57 ), #84 ) ;
#73 = CARTESIAN_POINT ( 'NONE',  ( -3.420665156717566185E-30, 1.199807826129486086E-31, -9.797174393178825657E-16 ) ) ;
#74 = PERSON_AND_ORGANIZATION ( #20, #5 ) ;
#75 = PERSON_AND_ORGANIZATION ( #20, #5 ) ;
#76 = APPROVAL_ROLE ( '' ) ;
#77 = CARTESIAN_POINT ( 'NONE',  ( -5.024101948928926757E-30, 8.000000000000000000, -1.438959988998140160E-15 ) ) ;
#78 = APPROVAL ( #53, 'UNSPECIFIED' ) ;
#79 = CARTESIAN_POINT ( 'NONE',  ( 3.491481338843132566E-15, 8.000000000000000000, 1.000000000000000000 ) ) ;
#80 = AXIS2_PLACEMENT_3D ( 'NONE', #113, #22, #70 ) ;
#81 = MANIFOLD_SOLID_BREP ( 'Corps-Déplacer/Copier1', #29 ) ;
#82 = ADVANCED_FACE ( 'NONE', ( #1, #34 ), #121, .F. ) ;
#83 = APPROVAL_STATUS ( 'not_yet_approved' ) ;
#84 =( GEOMETRIC_REPRESENTATION_CONTEXT ( 3 ) GLOBAL_UNCERTAINTY_ASSIGNED_CONTEXT ( ( #46 ) ) GLOBAL_UNIT_ASSIGNED_CONTEXT ( ( #93, #169, #38 ) ) REPRESENTATION_CONTEXT ( 'NONE', 'WORKASPACE' ) );
#85 = COORDINATED_UNIVERSAL_TIME_OFFSET ( 1, 0, .AHEAD. ) ;
#86 = ORIENTED_EDGE ( 'NONE', *, *, #127, .F. ) ;
#87 = PRODUCT_DEFINITION ( 'UNKNOWN', '', #91, #141 ) ;
#88 = APPLICATION_CONTEXT ( 'configuration controlled 3d designs of mechanical parts and assemblies' ) ;
#89 = PERSON_AND_ORGANIZATION ( #20, #5 ) ;
#90 = DIRECTION ( 'NONE',  ( 1.000000000000000000, 0.0000000000000000000, 0.0000000000000000000 ) ) ;
#91 = PRODUCT_DEFINITION_FORMATION_WITH_SPECIFIED_SOURCE ( 'ANY', '', #50, .NOT_KNOWN. ) ;
#92 = APPROVAL_ROLE ( '' ) ;
#93 =( LENGTH_UNIT ( ) NAMED_UNIT ( * ) SI_UNIT ( .MILLI., .METRE. ) );
#94 = SHAPE_DEFINITION_REPRESENTATION ( #125, #72 ) ;
#95 = ADVANCED_FACE ( 'NONE', ( #105, #135 ), #54, .T. ) ;
#96 = PERSON_AND_ORGANIZATION ( #20, #5 ) ;
#97 = LOCAL_TIME ( 10, 17, 57.00000000000000000, #17 ) ;
#98 = CALENDAR_DATE ( 2021, 7, 12 ) ;
#99 = APPROVAL_PERSON_ORGANIZATION ( #74, #78, #92 ) ;
#100 = CC_DESIGN_DATE_AND_TIME_ASSIGNMENT ( #19, #4, ( #25 ) ) ;
#101 = EDGE_LOOP ( 'NONE', ( #58 ) ) ;
#102 = EDGE_LOOP ( 'NONE', ( #45 ) ) ;
#103 = ORIENTED_EDGE ( 'NONE', *, *, #27, .T. ) ;
#104 = CARTESIAN_POINT ( 'NONE',  ( 3.491481338843128228E-15, 8.000000000000000000, 0.9999999999999985567 ) ) ;
#105 = FACE_OUTER_BOUND ( 'NONE', #101, .T. ) ;
#106 = EDGE_CURVE ( 'NONE', #40, #40, #128, .T. ) ;
#107 = DIRECTION ( 'NONE',  ( -3.491481338843133355E-15, 1.224646799147353207E-16, -1.000000000000000000 ) ) ;
#108 = CYLINDRICAL_SURFACE ( 'NONE', #138, 31.50000000000000000 ) ;
#109 = APPROVAL_STATUS ( 'not_yet_approved' ) ;
#110 = CIRCLE ( 'NONE', #42, 8.000000000000000000 ) ;
#111 = CC_DESIGN_APPROVAL ( #156, ( #91 ) ) ;
#112 = CC_DESIGN_SECURITY_CLASSIFICATION ( #25, ( #91 ) ) ;
#113 = CARTESIAN_POINT ( 'NONE',  ( -1.346886905457541760E-29, 4.724243315384851574E-31, -3.857637417314162689E-15 ) ) ;
#114 = CIRCLE ( 'NONE', #80, 31.50000000000000000 ) ;
#115 = CC_DESIGN_APPROVAL ( #69, ( #25 ) ) ;
#116 = SECURITY_CLASSIFICATION_LEVEL ( 'unclassified' ) ;
#117 = AXIS2_PLACEMENT_3D ( 'NONE', #2, #124, #28 ) ;
#118 = APPROVAL_PERSON_ORGANIZATION ( #39, #69, #76 ) ;
#119 = PERSON_AND_ORGANIZATION ( #20, #5 ) ;
#120 = CALENDAR_DATE ( 2021, 7, 12 ) ;
#121 = CYLINDRICAL_SURFACE ( 'NONE', #117, 8.000000000000000000 ) ;
#122 = VERTEX_POINT ( 'NONE', #36 ) ;
#123 = LOCAL_TIME ( 10, 17, 57.00000000000000000, #31 ) ;
#124 = DIRECTION ( 'NONE',  ( -3.491481338843133355E-15, 1.224646799147353207E-16, -1.000000000000000000 ) ) ;
#125 = PRODUCT_DEFINITION_SHAPE ( 'NONE', 'NONE',  #87 ) ;
#126 = DIRECTION ( 'NONE',  ( -4.275831445896958607E-31, -1.000000000000000000, -1.224646799147353207E-16 ) ) ;
#127 = EDGE_CURVE ( 'NONE', #122, #122, #110, .T. ) ;
#128 = CIRCLE ( 'NONE', #15, 8.000000000000000000 ) ;
#129 = APPROVAL_ROLE ( '' ) ;
#130 = EDGE_LOOP ( 'NONE', ( #152 ) ) ;
#131 = DATE_AND_TIME ( #120, #123 ) ;
#132 = DIRECTION ( 'NONE',  ( 4.157563054550223109E-31, 1.000000000000000000, 1.239088197126290817E-16 ) ) ;
#133 = DIRECTION ( 'NONE',  ( 4.275831445896958607E-31, 1.000000000000000000, 1.224646799147353207E-16 ) ) ;
#134 = AXIS2_PLACEMENT_3D ( 'NONE', #154, #71, #132 ) ;
#135 = FACE_BOUND ( 'NONE', #68, .T. ) ;
#136 = CALENDAR_DATE ( 2021, 7, 12 ) ;
#137 = COORDINATED_UNIVERSAL_TIME_OFFSET ( 1, 0, .AHEAD. ) ;
#138 = AXIS2_PLACEMENT_3D ( 'NONE', #66, #148, #64 ) ;
#139 = CALENDAR_DATE ( 2021, 7, 12 ) ;
#140 = ORIENTED_EDGE ( 'NONE', *, *, #127, .T. ) ;
#141 = DESIGN_CONTEXT ( 'detailed design', #43, 'design' ) ;
#142 = EDGE_LOOP ( 'NONE', ( #59 ) ) ;
#143 = APPROVAL_PERSON_ORGANIZATION ( #35, #156, #129 ) ;
#144 = CARTESIAN_POINT ( 'NONE',  ( 3.491481338843129805E-15, -1.224646799147351975E-16, 0.9999999999999988898 ) ) ;
#145 = CC_DESIGN_PERSON_AND_ORGANIZATION_ASSIGNMENT ( #119, #167, ( #50 ) ) ;
#146 = CARTESIAN_POINT ( 'NONE',  ( 2.736911063134408342E-45, 31.50000000000000000, 0.0000000000000000000 ) ) ;
#147 = ADVANCED_FACE ( 'NONE', ( #158, #14 ), #108, .T. ) ;
#148 = DIRECTION ( 'NONE',  ( -3.491481338843133355E-15, 1.224646799147353207E-16, -1.000000000000000000 ) ) ;
#149 = COORDINATED_UNIVERSAL_TIME_OFFSET ( 1, 0, .AHEAD. ) ;
#150 = AXIS2_PLACEMENT_3D ( 'NONE', #104, #155, #126 ) ;
#151 = PERSON_AND_ORGANIZATION_ROLE ( 'classification_officer' ) ;
#152 = ORIENTED_EDGE ( 'NONE', *, *, #106, .F. ) ;
#153 = LOCAL_TIME ( 10, 17, 57.00000000000000000, #149 ) ;
#154 = CARTESIAN_POINT ( 'NONE',  ( 3.491481338843119550E-15, -1.224646799147348523E-16, 0.9999999999999961142 ) ) ;
#155 = DIRECTION ( 'NONE',  ( 3.491481338843133355E-15, -1.224646799147353207E-16, 1.000000000000000000 ) ) ;
#156 = APPROVAL ( #83, 'UNSPECIFIED' ) ;
#157 = DATE_TIME_ROLE ( 'creation_date' ) ;
#158 = FACE_OUTER_BOUND ( 'NONE', #21, .T. ) ;
#159 = DIRECTION ( 'NONE',  ( 0.0000000000000000000, 0.0000000000000000000, 1.000000000000000000 ) ) ;
#160 = DATE_AND_TIME ( #67, #97 ) ;
#161 = DATE_AND_TIME ( #136, #153 ) ;
#162 = PLANE ( 'NONE',  #150 ) ;
#163 = EDGE_LOOP ( 'NONE', ( #140 ) ) ;
#164 = LOCAL_TIME ( 10, 17, 57.00000000000000000, #137 ) ;
#165 = CC_DESIGN_PERSON_AND_ORGANIZATION_ASSIGNMENT ( #96, #30, ( #87 ) ) ;
#166 = PERSON_AND_ORGANIZATION ( #20, #5 ) ;
#167 = PERSON_AND_ORGANIZATION_ROLE ( 'design_owner' ) ;
#168 = DIRECTION ( 'NONE',  ( 3.851859888774471706E-31, 1.000000000000000000, 1.355252715606880543E-16 ) ) ;
#169 =( NAMED_UNIT ( * ) PLANE_ANGLE_UNIT ( ) SI_UNIT ( $, .RADIAN. ) );
ENDSEC;
END-ISO-10303-21;
