ISO-10303-21;
HEADER;
FILE_DESCRIPTION (( 'STEP AP203' ),
    '1' );
FILE_NAME ('977541.step',
    '2021-12-07T09:17:56',
    ( '' ),
    ( '' ),
    'SwSTEP 2.0',
    'SolidWorks 2019',
    '' );
FILE_SCHEMA (( 'CONFIG_CONTROL_DESIGN' ));
ENDSEC;

DATA;
#1 = COORDINATED_UNIVERSAL_TIME_OFFSET ( 1, 0, .AHEAD. ) ;
#2 = ORIENTED_EDGE ( 'NONE', *, *, #99, .F. ) ;
#3 = EDGE_LOOP ( 'NONE', ( #109 ) ) ;
#4 = CARTESIAN_POINT ( 'NONE',  ( 2.793185071074493274E-15, -9.797174393178778079E-17, 0.7999999999999961586 ) ) ;
#5 = FACE_OUTER_BOUND ( 'NONE', #123, .T. ) ;
#6 = PRODUCT_DEFINITION_SHAPE ( 'NONE', 'NONE',  #17 ) ;
#7 = DIRECTION ( 'NONE',  ( -3.491481338843133355E-15, 1.224646799147353207E-16, -1.000000000000000000 ) ) ;
#8 = DIRECTION ( 'NONE',  ( 1.000000000000000000, 0.0000000000000000000, 0.0000000000000000000 ) ) ;
#9 = EDGE_CURVE ( 'NONE', #127, #127, #160, .T. ) ;
#10 = CC_DESIGN_APPROVAL ( #152, ( #17 ) ) ;
#11 = ORIENTED_EDGE ( 'NONE', *, *, #41, .T. ) ;
#12 = DIRECTION ( 'NONE',  ( -3.491481338843133355E-15, 1.224646799147353207E-16, -1.000000000000000000 ) ) ;
#13 = EDGE_LOOP ( 'NONE', ( #11 ) ) ;
#14 = CC_DESIGN_APPROVAL ( #37, ( #39 ) ) ;
#15 = CARTESIAN_POINT ( 'NONE',  ( 2.793185071074506684E-15, 31.50000000000000000, 0.8000000000000000444 ) ) ;
#16 = CARTESIAN_POINT ( 'NONE',  ( 2.736911063134408342E-45, 31.50000000000000000, 0.0000000000000000000 ) ) ;
#17 = PRODUCT_DEFINITION ( 'UNKNOWN', '', #53, #48 ) ;
#18 = COORDINATED_UNIVERSAL_TIME_OFFSET ( 1, 0, .AHEAD. ) ;
#19 = CIRCLE ( 'NONE', #124, 8.000000000000000000 ) ;
#20 = APPROVAL ( #36, 'UNSPECIFIED' ) ;
#21 = SHAPE_DEFINITION_REPRESENTATION ( #6, #74 ) ;
#22 = DIRECTION ( 'NONE',  ( 4.279844320860524021E-31, 1.000000000000000000, 1.239088197126290817E-16 ) ) ;
#23 = PRODUCT_RELATED_PRODUCT_CATEGORY ( 'detail', '', ( #96 ) ) ;
#24 = AXIS2_PLACEMENT_3D ( 'NONE', #56, #138, #110 ) ;
#25 = FACE_BOUND ( 'NONE', #65, .T. ) ;
#26 = EDGE_LOOP ( 'NONE', ( #125 ) ) ;
#27 = FACE_OUTER_BOUND ( 'NONE', #26, .T. ) ;
#28 = LOCAL_TIME ( 10, 17, 56.00000000000000000, #64 ) ;
#29 = APPLICATION_PROTOCOL_DEFINITION ( 'international standard', 'config_control_design', 1994, #148 ) ;
#30 = DATE_AND_TIME ( #153, #68 ) ;
#31 = APPROVAL_ROLE ( '' ) ;
#32 = AXIS2_PLACEMENT_3D ( 'NONE', #116, #49, #98 ) ;
#33 = DATE_AND_TIME ( #156, #129 ) ;
#34 = FACE_BOUND ( 'NONE', #13, .T. ) ;
#35 = CIRCLE ( 'NONE', #136, 31.50000000000000000 ) ;
#36 = APPROVAL_STATUS ( 'not_yet_approved' ) ;
#37 = APPROVAL ( #133, 'UNSPECIFIED' ) ;
#38 = PERSON_AND_ORGANIZATION_ROLE ( 'design_supplier' ) ;
#39 = SECURITY_CLASSIFICATION ( '', '', #117 ) ;
#40 = DATE_TIME_ROLE ( 'classification_date' ) ;
#41 = EDGE_CURVE ( 'NONE', #71, #71, #72, .T. ) ;
#42 = PLANE ( 'NONE',  #108 ) ;
#43 = APPROVAL_PERSON_ORGANIZATION ( #78, #37, #118 ) ;
#44 = DIRECTION ( 'NONE',  ( 4.333342374871280669E-31, 1.000000000000000000, 1.219727444046192488E-16 ) ) ;
#45 = VERTEX_POINT ( 'NONE', #75 ) ;
#46 = AXIS2_PLACEMENT_3D ( 'NONE', #162, #81, #44 ) ;
#47 = COORDINATED_UNIVERSAL_TIME_OFFSET ( 1, 0, .AHEAD. ) ;
#48 = DESIGN_CONTEXT ( 'detailed design', #148, 'design' ) ;
#49 = DIRECTION ( 'NONE',  ( 3.491481338843133355E-15, -1.224646799147353207E-16, 1.000000000000000000 ) ) ;
#50 = APPROVAL_PERSON_ORGANIZATION ( #114, #152, #31 ) ;
#51 = DATE_AND_TIME ( #103, #167 ) ;
#52 = DATE_AND_TIME ( #92, #28 ) ;
#53 = PRODUCT_DEFINITION_FORMATION_WITH_SPECIFIED_SOURCE ( 'ANY', '', #96, .NOT_KNOWN. ) ;
#54 = FACE_OUTER_BOUND ( 'NONE', #3, .T. ) ;
#55 = EDGE_LOOP ( 'NONE', ( #66 ) ) ;
#56 = CARTESIAN_POINT ( 'NONE',  ( -1.346886905457541760E-29, 4.724243315384851574E-31, -3.857637417314162689E-15 ) ) ;
#57 = PERSON ( 'UNSPECIFIED', 'UNSPECIFIED', 'UNSPECIFIED', ('UNSPECIFIED'), ('UNSPECIFIED'), ('UNSPECIFIED') ) ;
#58 = COORDINATED_UNIVERSAL_TIME_OFFSET ( 1, 0, .AHEAD. ) ;
#59 = DIRECTION ( 'NONE',  ( 0.0000000000000000000, 0.0000000000000000000, 1.000000000000000000 ) ) ;
#60 = VERTEX_POINT ( 'NONE', #15 ) ;
#61 = DIRECTION ( 'NONE',  ( 4.275831445896958607E-31, 1.000000000000000000, 1.224646799147353207E-16 ) ) ;
#62 = PERSON_AND_ORGANIZATION ( #57, #82 ) ;
#63 = DATE_TIME_ROLE ( 'creation_date' ) ;
#64 = COORDINATED_UNIVERSAL_TIME_OFFSET ( 1, 0, .AHEAD. ) ;
#65 = EDGE_LOOP ( 'NONE', ( #122 ) ) ;
#66 = ORIENTED_EDGE ( 'NONE', *, *, #41, .F. ) ;
#67 = ADVANCED_FACE ( 'NONE', ( #54, #126 ), #97, .F. ) ;
#68 = LOCAL_TIME ( 10, 17, 56.00000000000000000, #58 ) ;
#69 = CC_DESIGN_PERSON_AND_ORGANIZATION_ASSIGNMENT ( #145, #159, ( #39 ) ) ;
#70 = APPROVAL_STATUS ( 'not_yet_approved' ) ;
#71 = VERTEX_POINT ( 'NONE', #73 ) ;
#72 = CIRCLE ( 'NONE', #46, 8.000000000000000000 ) ;
#73 = CARTESIAN_POINT ( 'NONE',  ( 2.793185071074507079E-15, 8.000000000000000000, 0.8000000000000000444 ) ) ;
#74 = ADVANCED_BREP_SHAPE_REPRESENTATION ( '977541', ( #79, #140 ), #94 ) ;
#75 = CARTESIAN_POINT ( 'NONE',  ( 6.842277657836020854E-46, 8.000000000000000000, 0.0000000000000000000 ) ) ;
#76 = CARTESIAN_POINT ( 'NONE',  ( 0.0000000000000000000, 0.0000000000000000000, 0.0000000000000000000 ) ) ;
#77 = DATE_AND_TIME ( #146, #80 ) ;
#78 = PERSON_AND_ORGANIZATION ( #57, #82 ) ;
#79 = MANIFOLD_SOLID_BREP ( 'Corps-Déplacer/Copier1', #115 ) ;
#80 = LOCAL_TIME ( 10, 17, 56.00000000000000000, #1 ) ;
#81 = DIRECTION ( 'NONE',  ( -3.491481338843133355E-15, 1.224646799147353207E-16, -1.000000000000000000 ) ) ;
#82 = ORGANIZATION ( 'UNSPECIFIED', 'UNSPECIFIED', '' ) ;
#83 = CARTESIAN_POINT ( 'NONE',  ( -5.024101948928926757E-30, 8.000000000000000000, -1.438959988998140160E-15 ) ) ;
#84 = CC_DESIGN_PERSON_AND_ORGANIZATION_ASSIGNMENT ( #151, #168, ( #96 ) ) ;
#85 = PERSON_AND_ORGANIZATION ( #57, #82 ) ;
#86 =( NAMED_UNIT ( * ) PLANE_ANGLE_UNIT ( ) SI_UNIT ( $, .RADIAN. ) );
#87 = PLANE ( 'NONE',  #32 ) ;
#88 = APPROVAL_DATE_TIME ( #33, #152 ) ;
#89 = ADVANCED_FACE ( 'NONE', ( #27, #25 ), #42, .T. ) ;
#90 =( NAMED_UNIT ( * ) SI_UNIT ( $, .STERADIAN. ) SOLID_ANGLE_UNIT ( ) );
#91 = CC_DESIGN_PERSON_AND_ORGANIZATION_ASSIGNMENT ( #85, #144, ( #17 ) ) ;
#92 = CALENDAR_DATE ( 2021, 7, 12 ) ;
#93 = CC_DESIGN_DATE_AND_TIME_ASSIGNMENT ( #30, #63, ( #17 ) ) ;
#94 =( GEOMETRIC_REPRESENTATION_CONTEXT ( 3 ) GLOBAL_UNCERTAINTY_ASSIGNED_CONTEXT ( ( #128 ) ) GLOBAL_UNIT_ASSIGNED_CONTEXT ( ( #166, #86, #90 ) ) REPRESENTATION_CONTEXT ( 'NONE', 'WORKASPACE' ) );
#95 = DIRECTION ( 'NONE',  ( 4.275831445896958607E-31, 1.000000000000000000, 1.224646799147353207E-16 ) ) ;
#96 = PRODUCT ( '977541', '977541', '', ( #100 ) ) ;
#97 = CYLINDRICAL_SURFACE ( 'NONE', #107, 8.000000000000000000 ) ;
#98 = DIRECTION ( 'NONE',  ( -4.275831445896958607E-31, -1.000000000000000000, -1.224646799147353207E-16 ) ) ;
#99 = EDGE_CURVE ( 'NONE', #60, #60, #35, .T. ) ;
#100 = MECHANICAL_CONTEXT ( 'NONE', #158, 'mechanical' ) ;
#101 = FACE_OUTER_BOUND ( 'NONE', #161, .T. ) ;
#102 = CC_DESIGN_PERSON_AND_ORGANIZATION_ASSIGNMENT ( #62, #38, ( #53 ) ) ;
#103 = CALENDAR_DATE ( 2021, 7, 12 ) ;
#104 = APPROVAL_ROLE ( '' ) ;
#105 = APPROVAL_PERSON_ORGANIZATION ( #134, #20, #104 ) ;
#106 = EDGE_LOOP ( 'NONE', ( #111 ) ) ;
#107 = AXIS2_PLACEMENT_3D ( 'NONE', #163, #149, #147 ) ;
#108 = AXIS2_PLACEMENT_3D ( 'NONE', #83, #141, #95 ) ;
#109 = ORIENTED_EDGE ( 'NONE', *, *, #113, .T. ) ;
#110 = DIRECTION ( 'NONE',  ( 4.275831445896958607E-31, 1.000000000000000000, 1.224646799147353207E-16 ) ) ;
#111 = ORIENTED_EDGE ( 'NONE', *, *, #9, .F. ) ;
#112 = FACE_OUTER_BOUND ( 'NONE', #106, .T. ) ;
#113 = EDGE_CURVE ( 'NONE', #45, #45, #19, .T. ) ;
#114 = PERSON_AND_ORGANIZATION ( #57, #82 ) ;
#115 = CLOSED_SHELL ( 'NONE', ( #89, #121, #139, #67 ) ) ;
#116 = CARTESIAN_POINT ( 'NONE',  ( 2.793185071074501951E-15, 8.000000000000000000, 0.7999999999999986011 ) ) ;
#117 = SECURITY_CLASSIFICATION_LEVEL ( 'unclassified' ) ;
#118 = APPROVAL_ROLE ( '' ) ;
#119 = PERSON_AND_ORGANIZATION_ROLE ( 'creator' ) ;
#120 = CC_DESIGN_PERSON_AND_ORGANIZATION_ASSIGNMENT ( #130, #119, ( #53 ) ) ;
#121 = ADVANCED_FACE ( 'NONE', ( #101, #112 ), #154, .T. ) ;
#122 = ORIENTED_EDGE ( 'NONE', *, *, #113, .F. ) ;
#123 = EDGE_LOOP ( 'NONE', ( #2 ) ) ;
#124 = AXIS2_PLACEMENT_3D ( 'NONE', #135, #7, #142 ) ;
#125 = ORIENTED_EDGE ( 'NONE', *, *, #9, .T. ) ;
#126 = FACE_OUTER_BOUND ( 'NONE', #55, .T. ) ;
#127 = VERTEX_POINT ( 'NONE', #16 ) ;
#128 = UNCERTAINTY_MEASURE_WITH_UNIT (LENGTH_MEASURE( 1.000000000000000082E-05 ), #166, 'distance_accuracy_value', 'NONE');
#129 = LOCAL_TIME ( 10, 17, 56.00000000000000000, #47 ) ;
#130 = PERSON_AND_ORGANIZATION ( #57, #82 ) ;
#131 = APPROVAL_DATE_TIME ( #51, #20 ) ;
#132 = CC_DESIGN_APPROVAL ( #20, ( #53 ) ) ;
#133 = APPROVAL_STATUS ( 'not_yet_approved' ) ;
#134 = PERSON_AND_ORGANIZATION ( #57, #82 ) ;
#135 = CARTESIAN_POINT ( 'NONE',  ( -3.420665156717566185E-30, 1.199807826129486086E-31, -9.797174393178825657E-16 ) ) ;
#136 = AXIS2_PLACEMENT_3D ( 'NONE', #4, #12, #22 ) ;
#137 = ORIENTED_EDGE ( 'NONE', *, *, #99, .T. ) ;
#138 = DIRECTION ( 'NONE',  ( -3.491481338843133355E-15, 1.224646799147353207E-16, -1.000000000000000000 ) ) ;
#139 = ADVANCED_FACE ( 'NONE', ( #34, #5 ), #87, .T. ) ;
#140 = AXIS2_PLACEMENT_3D ( 'NONE', #76, #59, #8 ) ;
#141 = DIRECTION ( 'NONE',  ( -3.491481338843133355E-15, 1.224646799147353207E-16, -1.000000000000000000 ) ) ;
#142 = DIRECTION ( 'NONE',  ( 4.275831445896958607E-31, 1.000000000000000000, 1.224646799147353207E-16 ) ) ;
#143 = DIRECTION ( 'NONE',  ( -3.491481338843133355E-15, 1.224646799147353207E-16, -1.000000000000000000 ) ) ;
#144 = PERSON_AND_ORGANIZATION_ROLE ( 'creator' ) ;
#145 = PERSON_AND_ORGANIZATION ( #57, #82 ) ;
#146 = CALENDAR_DATE ( 2021, 7, 12 ) ;
#147 = DIRECTION ( 'NONE',  ( 4.275831445896958607E-31, 1.000000000000000000, 1.224646799147353207E-16 ) ) ;
#148 = APPLICATION_CONTEXT ( 'configuration controlled 3d designs of mechanical parts and assemblies' ) ;
#149 = DIRECTION ( 'NONE',  ( -3.491481338843133355E-15, 1.224646799147353207E-16, -1.000000000000000000 ) ) ;
#150 = CC_DESIGN_SECURITY_CLASSIFICATION ( #39, ( #53 ) ) ;
#151 = PERSON_AND_ORGANIZATION ( #57, #82 ) ;
#152 = APPROVAL ( #70, 'UNSPECIFIED' ) ;
#153 = CALENDAR_DATE ( 2021, 7, 12 ) ;
#154 = CYLINDRICAL_SURFACE ( 'NONE', #155, 31.50000000000000000 ) ;
#155 = AXIS2_PLACEMENT_3D ( 'NONE', #157, #143, #61 ) ;
#156 = CALENDAR_DATE ( 2021, 7, 12 ) ;
#157 = CARTESIAN_POINT ( 'NONE',  ( 0.0000000000000000000, 0.0000000000000000000, 0.0000000000000000000 ) ) ;
#158 = APPLICATION_CONTEXT ( 'configuration controlled 3d designs of mechanical parts and assemblies' ) ;
#159 = PERSON_AND_ORGANIZATION_ROLE ( 'classification_officer' ) ;
#160 = CIRCLE ( 'NONE', #24, 31.50000000000000000 ) ;
#161 = EDGE_LOOP ( 'NONE', ( #137 ) ) ;
#162 = CARTESIAN_POINT ( 'NONE',  ( 2.793185071074503529E-15, -9.797174393178813824E-17, 0.7999999999999990452 ) ) ;
#163 = CARTESIAN_POINT ( 'NONE',  ( 0.0000000000000000000, 0.0000000000000000000, 0.0000000000000000000 ) ) ;
#164 = CC_DESIGN_DATE_AND_TIME_ASSIGNMENT ( #77, #40, ( #39 ) ) ;
#165 = APPLICATION_PROTOCOL_DEFINITION ( 'international standard', 'config_control_design', 1994, #158 ) ;
#166 =( LENGTH_UNIT ( ) NAMED_UNIT ( * ) SI_UNIT ( .MILLI., .METRE. ) );
#167 = LOCAL_TIME ( 10, 17, 56.00000000000000000, #18 ) ;
#168 = PERSON_AND_ORGANIZATION_ROLE ( 'design_owner' ) ;
#169 = APPROVAL_DATE_TIME ( #52, #37 ) ;
ENDSEC;
END-ISO-10303-21;
