ISO-10303-21;
HEADER;
FILE_DESCRIPTION (( 'STEP AP203' ),
    '1' );
FILE_NAME ('977540.step',
    '2021-12-07T09:17:56',
    ( '' ),
    ( '' ),
    'SwSTEP 2.0',
    'SolidWorks 2019',
    '' );
FILE_SCHEMA (( 'CONFIG_CONTROL_DESIGN' ));
ENDSEC;

DATA;
#1 = SECURITY_CLASSIFICATION ( '', '', #155 ) ;
#2 = VERTEX_POINT ( 'NONE', #28 ) ;
#3 = CC_DESIGN_PERSON_AND_ORGANIZATION_ASSIGNMENT ( #88, #7, ( #1 ) ) ;
#4 = DIRECTION ( 'NONE',  ( 8.551662891793917213E-31, 1.000000000000000000, 2.449293598294706414E-16 ) ) ;
#5 = CIRCLE ( 'NONE', #111, 31.50000000000000000 ) ;
#6 = DIRECTION ( 'NONE',  ( -3.491481338843133355E-15, 2.449293598294706414E-16, -1.000000000000000000 ) ) ;
#7 = PERSON_AND_ORGANIZATION_ROLE ( 'classification_officer' ) ;
#8 = ORIENTED_EDGE ( 'NONE', *, *, #66, .T. ) ;
#9 = APPROVAL_ROLE ( '' ) ;
#10 = FACE_BOUND ( 'NONE', #91, .T. ) ;
#11 = EDGE_LOOP ( 'NONE', ( #107 ) ) ;
#12 = AXIS2_PLACEMENT_3D ( 'NONE', #168, #55, #85 ) ;
#13 =( NAMED_UNIT ( * ) SI_UNIT ( $, .STERADIAN. ) SOLID_ANGLE_UNIT ( ) );
#14 = MECHANICAL_CONTEXT ( 'NONE', #57, 'mechanical' ) ;
#15 = CC_DESIGN_DATE_AND_TIME_ASSIGNMENT ( #104, #67, ( #1 ) ) ;
#16 = APPROVAL_DATE_TIME ( #31, #53 ) ;
#17 = CALENDAR_DATE ( 2021, 7, 12 ) ;
#18 = AXIS2_PLACEMENT_3D ( 'NONE', #166, #50, #48 ) ;
#19 = CALENDAR_DATE ( 2021, 7, 12 ) ;
#20 = SHAPE_DEFINITION_REPRESENTATION ( #45, #99 ) ;
#21 = CC_DESIGN_PERSON_AND_ORGANIZATION_ASSIGNMENT ( #108, #38, ( #49 ) ) ;
#22 = PLANE ( 'NONE',  #106 ) ;
#23 = PRODUCT_RELATED_PRODUCT_CATEGORY ( 'detail', '', ( #119 ) ) ;
#24 = PERSON_AND_ORGANIZATION_ROLE ( 'creator' ) ;
#25 = PERSON ( 'UNSPECIFIED', 'UNSPECIFIED', 'UNSPECIFIED', ('UNSPECIFIED'), ('UNSPECIFIED'), ('UNSPECIFIED') ) ;
#26 = CARTESIAN_POINT ( 'NONE',  ( 0.0000000000000000000, 0.0000000000000000000, 0.0000000000000000000 ) ) ;
#27 = COORDINATED_UNIVERSAL_TIME_OFFSET ( 1, 0, .AHEAD. ) ;
#28 = CARTESIAN_POINT ( 'NONE',  ( 1.745740669421566678E-15, 31.50000000000000000, 0.5000000000000000000 ) ) ;
#29 = CARTESIAN_POINT ( 'NONE',  ( 0.0000000000000000000, 0.0000000000000000000, 0.0000000000000000000 ) ) ;
#30 = FACE_OUTER_BOUND ( 'NONE', #145, .T. ) ;
#31 = DATE_AND_TIME ( #152, #60 ) ;
#32 = CC_DESIGN_APPROVAL ( #164, ( #1 ) ) ;
#33 = CC_DESIGN_PERSON_AND_ORGANIZATION_ASSIGNMENT ( #131, #154, ( #116 ) ) ;
#34 = CC_DESIGN_APPROVAL ( #53, ( #116 ) ) ;
#35 = COORDINATED_UNIVERSAL_TIME_OFFSET ( 1, 0, .AHEAD. ) ;
#36 = APPROVAL_ROLE ( '' ) ;
#37 = FACE_OUTER_BOUND ( 'NONE', #68, .T. ) ;
#38 = PERSON_AND_ORGANIZATION_ROLE ( 'design_supplier' ) ;
#39 = PERSON_AND_ORGANIZATION ( #25, #114 ) ;
#40 = VERTEX_POINT ( 'NONE', #132 ) ;
#41 = APPLICATION_PROTOCOL_DEFINITION ( 'international standard', 'config_control_design', 1994, #93 ) ;
#42 = CIRCLE ( 'NONE', #97, 8.000000000000000000 ) ;
#43 = LOCAL_TIME ( 10, 17, 56.00000000000000000, #149 ) ;
#44 = CC_DESIGN_DATE_AND_TIME_ASSIGNMENT ( #58, #144, ( #116 ) ) ;
#45 = PRODUCT_DEFINITION_SHAPE ( 'NONE', 'NONE',  #116 ) ;
#46 = AXIS2_PLACEMENT_3D ( 'NONE', #29, #98, #141 ) ;
#47 = CALENDAR_DATE ( 2021, 7, 12 ) ;
#48 = DIRECTION ( 'NONE',  ( 8.666684749742561339E-31, 1.000000000000000000, 2.439454888092384977E-16 ) ) ;
#49 = PRODUCT_DEFINITION_FORMATION_WITH_SPECIFIED_SOURCE ( 'ANY', '', #119, .NOT_KNOWN. ) ;
#50 = DIRECTION ( 'NONE',  ( -3.491481338843133355E-15, 2.449293598294706414E-16, -1.000000000000000000 ) ) ;
#51 =( LENGTH_UNIT ( ) NAMED_UNIT ( * ) SI_UNIT ( .MILLI., .METRE. ) );
#52 = APPROVAL_STATUS ( 'not_yet_approved' ) ;
#53 = APPROVAL ( #52, 'UNSPECIFIED' ) ;
#54 = VERTEX_POINT ( 'NONE', #96 ) ;
#55 = DIRECTION ( 'NONE',  ( 0.0000000000000000000, 0.0000000000000000000, 1.000000000000000000 ) ) ;
#56 = DIRECTION ( 'NONE',  ( 3.491481338843133355E-15, -2.449293598294706414E-16, 1.000000000000000000 ) ) ;
#57 = APPLICATION_CONTEXT ( 'configuration controlled 3d designs of mechanical parts and assemblies' ) ;
#58 = DATE_AND_TIME ( #17, #105 ) ;
#59 = ADVANCED_FACE ( 'NONE', ( #37, #10 ), #22, .T. ) ;
#60 = LOCAL_TIME ( 10, 17, 56.00000000000000000, #113 ) ;
#61 = DATE_AND_TIME ( #47, #160 ) ;
#62 = FACE_OUTER_BOUND ( 'NONE', #167, .T. ) ;
#63 = APPROVAL_STATUS ( 'not_yet_approved' ) ;
#64 = CYLINDRICAL_SURFACE ( 'NONE', #118, 8.000000000000000000 ) ;
#65 = DIRECTION ( 'NONE',  ( 8.551662891793917213E-31, 1.000000000000000000, 2.449293598294706414E-16 ) ) ;
#66 = EDGE_CURVE ( 'NONE', #150, #150, #42, .T. ) ;
#67 = DATE_TIME_ROLE ( 'classification_date' ) ;
#68 = EDGE_LOOP ( 'NONE', ( #157 ) ) ;
#69 = PERSON_AND_ORGANIZATION ( #25, #114 ) ;
#70 = ADVANCED_FACE ( 'NONE', ( #62, #125 ), #64, .F. ) ;
#71 = CYLINDRICAL_SURFACE ( 'NONE', #46, 31.50000000000000000 ) ;
#72 = APPLICATION_PROTOCOL_DEFINITION ( 'international standard', 'config_control_design', 1994, #57 ) ;
#73 = CARTESIAN_POINT ( 'NONE',  ( -2.693773810915083519E-29, 1.889697326153940630E-30, -7.715274834628325378E-15 ) ) ;
#74 = APPROVAL_DATE_TIME ( #89, #164 ) ;
#75 = DIRECTION ( 'NONE',  ( -3.491481338843133355E-15, 2.449293598294706414E-16, -1.000000000000000000 ) ) ;
#76 = CC_DESIGN_PERSON_AND_ORGANIZATION_ASSIGNMENT ( #158, #24, ( #49 ) ) ;
#77 = EDGE_LOOP ( 'NONE', ( #90 ) ) ;
#78 = LOCAL_TIME ( 10, 17, 56.00000000000000000, #27 ) ;
#79 =( NAMED_UNIT ( * ) PLANE_ANGLE_UNIT ( ) SI_UNIT ( $, .RADIAN. ) );
#80 = DIRECTION ( 'NONE',  ( -3.491481338843133355E-15, 2.449293598294706414E-16, -1.000000000000000000 ) ) ;
#81 = DIRECTION ( 'NONE',  ( -8.551662891793917213E-31, -1.000000000000000000, -2.449293598294706414E-16 ) ) ;
#82 = MANIFOLD_SOLID_BREP ( 'Corps-Déplacer/Copier1', #129 ) ;
#83 = DIRECTION ( 'NONE',  ( 8.559688641721048041E-31, 1.000000000000000000, 2.443757277665740161E-16 ) ) ;
#84 = APPROVAL ( #143, 'UNSPECIFIED' ) ;
#85 = DIRECTION ( 'NONE',  ( 1.000000000000000000, 0.0000000000000000000, 0.0000000000000000000 ) ) ;
#86 = COORDINATED_UNIVERSAL_TIME_OFFSET ( 1, 0, .AHEAD. ) ;
#87 = AXIS2_PLACEMENT_3D ( 'NONE', #127, #56, #81 ) ;
#88 = PERSON_AND_ORGANIZATION ( #25, #114 ) ;
#89 = DATE_AND_TIME ( #156, #78 ) ;
#90 = ORIENTED_EDGE ( 'NONE', *, *, #165, .F. ) ;
#91 = EDGE_LOOP ( 'NONE', ( #135 ) ) ;
#92 = CC_DESIGN_PERSON_AND_ORGANIZATION_ASSIGNMENT ( #69, #162, ( #119 ) ) ;
#93 = APPLICATION_CONTEXT ( 'configuration controlled 3d designs of mechanical parts and assemblies' ) ;
#94 = DIRECTION ( 'NONE',  ( 8.551662891793917213E-31, 1.000000000000000000, 2.449293598294706414E-16 ) ) ;
#95 = APPROVAL_PERSON_ORGANIZATION ( #39, #53, #151 ) ;
#96 = CARTESIAN_POINT ( 'NONE',  ( 5.473822126268816683E-45, 31.50000000000000000, 0.0000000000000000000 ) ) ;
#97 = AXIS2_PLACEMENT_3D ( 'NONE', #122, #6, #4 ) ;
#98 = DIRECTION ( 'NONE',  ( -3.491481338843133355E-15, 2.449293598294706414E-16, -1.000000000000000000 ) ) ;
#99 = ADVANCED_BREP_SHAPE_REPRESENTATION ( '977540', ( #82, #12 ), #103 ) ;
#100 = EDGE_CURVE ( 'NONE', #40, #40, #133, .T. ) ;
#101 = CC_DESIGN_APPROVAL ( #84, ( #49 ) ) ;
#102 = ADVANCED_FACE ( 'NONE', ( #112, #30 ), #71, .T. ) ;
#103 =( GEOMETRIC_REPRESENTATION_CONTEXT ( 3 ) GLOBAL_UNCERTAINTY_ASSIGNED_CONTEXT ( ( #121 ) ) GLOBAL_UNIT_ASSIGNED_CONTEXT ( ( #51, #79, #13 ) ) REPRESENTATION_CONTEXT ( 'NONE', 'WORKASPACE' ) );
#104 = DATE_AND_TIME ( #19, #43 ) ;
#105 = LOCAL_TIME ( 10, 17, 56.00000000000000000, #86 ) ;
#106 = AXIS2_PLACEMENT_3D ( 'NONE', #123, #75, #136 ) ;
#107 = ORIENTED_EDGE ( 'NONE', *, *, #165, .T. ) ;
#108 = PERSON_AND_ORGANIZATION ( #25, #114 ) ;
#109 = EDGE_LOOP ( 'NONE', ( #137 ) ) ;
#110 = PERSON_AND_ORGANIZATION ( #25, #114 ) ;
#111 = AXIS2_PLACEMENT_3D ( 'NONE', #153, #161, #83 ) ;
#112 = FACE_OUTER_BOUND ( 'NONE', #11, .T. ) ;
#113 = COORDINATED_UNIVERSAL_TIME_OFFSET ( 1, 0, .AHEAD. ) ;
#114 = ORGANIZATION ( 'UNSPECIFIED', 'UNSPECIFIED', '' ) ;
#115 = APPROVAL_DATE_TIME ( #61, #84 ) ;
#116 = PRODUCT_DEFINITION ( 'UNKNOWN', '', #49, #146 ) ;
#117 = AXIS2_PLACEMENT_3D ( 'NONE', #73, #80, #94 ) ;
#118 = AXIS2_PLACEMENT_3D ( 'NONE', #26, #120, #65 ) ;
#119 = PRODUCT ( '977540', '977540', '', ( #14 ) ) ;
#120 = DIRECTION ( 'NONE',  ( -3.491481338843133355E-15, 2.449293598294706414E-16, -1.000000000000000000 ) ) ;
#121 = UNCERTAINTY_MEASURE_WITH_UNIT (LENGTH_MEASURE( 1.000000000000000082E-05 ), #51, 'distance_accuracy_value', 'NONE');
#122 = CARTESIAN_POINT ( 'NONE',  ( -6.841330313435132369E-30, 4.799231304517944345E-31, -1.959434878635765131E-15 ) ) ;
#123 = CARTESIAN_POINT ( 'NONE',  ( -1.004820389785785351E-29, 8.000000000000000000, -2.877919977996280320E-15 ) ) ;
#124 = CC_DESIGN_SECURITY_CLASSIFICATION ( #1, ( #49 ) ) ;
#125 = FACE_OUTER_BOUND ( 'NONE', #109, .T. ) ;
#126 = FACE_OUTER_BOUND ( 'NONE', #77, .T. ) ;
#127 = CARTESIAN_POINT ( 'NONE',  ( 1.745740669421556422E-15, 8.000000000000000000, 0.4999999999999970579 ) ) ;
#128 = ADVANCED_FACE ( 'NONE', ( #169, #126 ), #139, .T. ) ;
#129 = CLOSED_SHELL ( 'NONE', ( #59, #102, #128, #70 ) ) ;
#130 = APPROVAL_PERSON_ORGANIZATION ( #110, #84, #36 ) ;
#131 = PERSON_AND_ORGANIZATION ( #25, #114 ) ;
#132 = CARTESIAN_POINT ( 'NONE',  ( 1.745740669421566678E-15, 8.000000000000000000, 0.5000000000000000000 ) ) ;
#133 = CIRCLE ( 'NONE', #18, 8.000000000000000000 ) ;
#134 = PERSON_AND_ORGANIZATION ( #25, #114 ) ;
#135 = ORIENTED_EDGE ( 'NONE', *, *, #66, .F. ) ;
#136 = DIRECTION ( 'NONE',  ( 8.551662891793917213E-31, 1.000000000000000000, 2.449293598294706414E-16 ) ) ;
#137 = ORIENTED_EDGE ( 'NONE', *, *, #100, .F. ) ;
#138 = EDGE_LOOP ( 'NONE', ( #159 ) ) ;
#139 = PLANE ( 'NONE',  #87 ) ;
#140 = APPROVAL_PERSON_ORGANIZATION ( #134, #164, #9 ) ;
#141 = DIRECTION ( 'NONE',  ( 8.551662891793917213E-31, 1.000000000000000000, 2.449293598294706414E-16 ) ) ;
#142 = EDGE_CURVE ( 'NONE', #54, #54, #148, .T. ) ;
#143 = APPROVAL_STATUS ( 'not_yet_approved' ) ;
#144 = DATE_TIME_ROLE ( 'creation_date' ) ;
#145 = EDGE_LOOP ( 'NONE', ( #147 ) ) ;
#146 = DESIGN_CONTEXT ( 'detailed design', #93, 'design' ) ;
#147 = ORIENTED_EDGE ( 'NONE', *, *, #142, .F. ) ;
#148 = CIRCLE ( 'NONE', #117, 31.50000000000000000 ) ;
#149 = COORDINATED_UNIVERSAL_TIME_OFFSET ( 1, 0, .AHEAD. ) ;
#150 = VERTEX_POINT ( 'NONE', #163 ) ;
#151 = APPROVAL_ROLE ( '' ) ;
#152 = CALENDAR_DATE ( 2021, 7, 12 ) ;
#153 = CARTESIAN_POINT ( 'NONE',  ( 1.745740669421539856E-15, -1.224646799147334472E-16, 0.4999999999999923395 ) ) ;
#154 = PERSON_AND_ORGANIZATION_ROLE ( 'creator' ) ;
#155 = SECURITY_CLASSIFICATION_LEVEL ( 'unclassified' ) ;
#156 = CALENDAR_DATE ( 2021, 7, 12 ) ;
#157 = ORIENTED_EDGE ( 'NONE', *, *, #142, .T. ) ;
#158 = PERSON_AND_ORGANIZATION ( #25, #114 ) ;
#159 = ORIENTED_EDGE ( 'NONE', *, *, #100, .T. ) ;
#160 = LOCAL_TIME ( 10, 17, 56.00000000000000000, #35 ) ;
#161 = DIRECTION ( 'NONE',  ( -3.491481338843133355E-15, 2.449293598294706414E-16, -1.000000000000000000 ) ) ;
#162 = PERSON_AND_ORGANIZATION_ROLE ( 'design_owner' ) ;
#163 = CARTESIAN_POINT ( 'NONE',  ( 1.368455531567204171E-45, 8.000000000000000000, 0.0000000000000000000 ) ) ;
#164 = APPROVAL ( #63, 'UNSPECIFIED' ) ;
#165 = EDGE_CURVE ( 'NONE', #2, #2, #5, .T. ) ;
#166 = CARTESIAN_POINT ( 'NONE',  ( 1.745740669421559775E-15, -1.224646799147348523E-16, 0.4999999999999980571 ) ) ;
#167 = EDGE_LOOP ( 'NONE', ( #8 ) ) ;
#168 = CARTESIAN_POINT ( 'NONE',  ( 0.0000000000000000000, 0.0000000000000000000, 0.0000000000000000000 ) ) ;
#169 = FACE_BOUND ( 'NONE', #138, .T. ) ;
ENDSEC;
END-ISO-10303-21;
