ISO-10303-21;
HEADER;
FILE_DESCRIPTION (( 'STEP AP203' ),
    '1' );
FILE_NAME ('977539.step',
    '2021-12-07T09:17:55',
    ( '' ),
    ( '' ),
    'SwSTEP 2.0',
    'SolidWorks 2019',
    '' );
FILE_SCHEMA (( 'CONFIG_CONTROL_DESIGN' ));
ENDSEC;

DATA;
#1 = ORIENTED_EDGE ( 'NONE', *, *, #99, .F. ) ;
#2 = ADVANCED_FACE ( 'NONE', ( #40, #55 ), #41, .T. ) ;
#3 = CLOSED_SHELL ( 'NONE', ( #134, #117, #2, #149 ) ) ;
#4 = CARTESIAN_POINT ( 'NONE',  ( 3.491481338843133355E-15, 6.500000000000000000, 1.000000000000000000 ) ) ;
#5 =( LENGTH_UNIT ( ) NAMED_UNIT ( * ) SI_UNIT ( .MILLI., .METRE. ) );
#6 = CC_DESIGN_DATE_AND_TIME_ASSIGNMENT ( #13, #169, ( #77 ) ) ;
#7 = VERTEX_POINT ( 'NONE', #67 ) ;
#8 = APPROVAL_PERSON_ORGANIZATION ( #51, #44, #167 ) ;
#9 = DATE_AND_TIME ( #100, #105 ) ;
#10 = APPROVAL_DATE_TIME ( #9, #44 ) ;
#11 = AXIS2_PLACEMENT_3D ( 'NONE', #122, #66, #165 ) ;
#12 = COORDINATED_UNIVERSAL_TIME_OFFSET ( 1, 0, .AHEAD. ) ;
#13 = DATE_AND_TIME ( #63, #94 ) ;
#14 = EDGE_LOOP ( 'NONE', ( #141 ) ) ;
#15 = EDGE_LOOP ( 'NONE', ( #16 ) ) ;
#16 = ORIENTED_EDGE ( 'NONE', *, *, #110, .T. ) ;
#17 = MANIFOLD_SOLID_BREP ( 'Corps-Déplacer/Copier1', #3 ) ;
#18 = DIRECTION ( 'NONE',  ( 1.000000000000000000, 0.0000000000000000000, 0.0000000000000000000 ) ) ;
#19 = FACE_OUTER_BOUND ( 'NONE', #156, .T. ) ;
#20 = FACE_OUTER_BOUND ( 'NONE', #103, .T. ) ;
#21 = DIRECTION ( 'NONE',  ( -3.491481338843133355E-15, 1.224646799147353207E-16, -1.000000000000000000 ) ) ;
#22 = APPLICATION_CONTEXT ( 'configuration controlled 3d designs of mechanical parts and assemblies' ) ;
#23 = APPLICATION_PROTOCOL_DEFINITION ( 'international standard', 'config_control_design', 1994, #22 ) ;
#24 = DIRECTION ( 'NONE',  ( -3.491481338843133355E-15, 1.224646799147353207E-16, -1.000000000000000000 ) ) ;
#25 = DESIGN_CONTEXT ( 'detailed design', #115, 'design' ) ;
#26 = APPROVAL_STATUS ( 'not_yet_approved' ) ;
#27 = PERSON_AND_ORGANIZATION_ROLE ( 'creator' ) ;
#28 = AXIS2_PLACEMENT_3D ( 'NONE', #32, #106, #82 ) ;
#29 = AXIS2_PLACEMENT_3D ( 'NONE', #120, #21, #145 ) ;
#30 = EDGE_LOOP ( 'NONE', ( #31 ) ) ;
#31 = ORIENTED_EDGE ( 'NONE', *, *, #151, .T. ) ;
#32 = CARTESIAN_POINT ( 'NONE',  ( 3.491481338843122706E-15, -1.224646799147349509E-16, 0.9999999999999970024 ) ) ;
#33 = VERTEX_POINT ( 'NONE', #69 ) ;
#34 = CC_DESIGN_APPROVAL ( #97, ( #138 ) ) ;
#35 = APPROVAL_STATUS ( 'not_yet_approved' ) ;
#36 = CC_DESIGN_PERSON_AND_ORGANIZATION_ASSIGNMENT ( #123, #27, ( #138 ) ) ;
#37 = APPLICATION_PROTOCOL_DEFINITION ( 'international standard', 'config_control_design', 1994, #115 ) ;
#38 = PERSON_AND_ORGANIZATION ( #88, #39 ) ;
#39 = ORGANIZATION ( 'UNSPECIFIED', 'UNSPECIFIED', '' ) ;
#40 = FACE_BOUND ( 'NONE', #30, .T. ) ;
#41 = PLANE ( 'NONE',  #144 ) ;
#42 = AXIS2_PLACEMENT_3D ( 'NONE', #131, #58, #143 ) ;
#43 = FACE_OUTER_BOUND ( 'NONE', #153, .T. ) ;
#44 = APPROVAL ( #35, 'UNSPECIFIED' ) ;
#45 = FACE_OUTER_BOUND ( 'NONE', #15, .T. ) ;
#46 = CARTESIAN_POINT ( 'NONE',  ( 0.0000000000000000000, 0.0000000000000000000, 0.0000000000000000000 ) ) ;
#47 = APPROVAL_PERSON_ORGANIZATION ( #84, #64, #73 ) ;
#48 = PRODUCT_DEFINITION_FORMATION_WITH_SPECIFIED_SOURCE ( 'ANY', '', #129, .NOT_KNOWN. ) ;
#49 =( NAMED_UNIT ( * ) PLANE_ANGLE_UNIT ( ) SI_UNIT ( $, .RADIAN. ) );
#50 = COORDINATED_UNIVERSAL_TIME_OFFSET ( 1, 0, .AHEAD. ) ;
#51 = PERSON_AND_ORGANIZATION ( #88, #39 ) ;
#52 = COORDINATED_UNIVERSAL_TIME_OFFSET ( 1, 0, .AHEAD. ) ;
#53 = EDGE_LOOP ( 'NONE', ( #116 ) ) ;
#54 = AXIS2_PLACEMENT_3D ( 'NONE', #59, #107, #18 ) ;
#55 = FACE_OUTER_BOUND ( 'NONE', #14, .T. ) ;
#56 = EDGE_LOOP ( 'NONE', ( #1 ) ) ;
#57 = MECHANICAL_CONTEXT ( 'NONE', #22, 'mechanical' ) ;
#58 = DIRECTION ( 'NONE',  ( -3.491481338843133355E-15, 1.224646799147353207E-16, -1.000000000000000000 ) ) ;
#59 = CARTESIAN_POINT ( 'NONE',  ( 0.0000000000000000000, 0.0000000000000000000, 0.0000000000000000000 ) ) ;
#60 = CC_DESIGN_APPROVAL ( #44, ( #77 ) ) ;
#61 = DATE_TIME_ROLE ( 'creation_date' ) ;
#62 = APPROVAL_ROLE ( '' ) ;
#63 = CALENDAR_DATE ( 2021, 7, 12 ) ;
#64 = APPROVAL ( #71, 'UNSPECIFIED' ) ;
#65 = FACE_BOUND ( 'NONE', #56, .T. ) ;
#66 = DIRECTION ( 'NONE',  ( -3.491481338843133355E-15, 1.224646799147353207E-16, -1.000000000000000000 ) ) ;
#67 = CARTESIAN_POINT ( 'NONE',  ( 0.0000000000000000000, 6.499999999999999112, 0.0000000000000000000 ) ) ;
#68 = CC_DESIGN_PERSON_AND_ORGANIZATION_ASSIGNMENT ( #38, #98, ( #48 ) ) ;
#69 = CARTESIAN_POINT ( 'NONE',  ( 3.491481338843133355E-15, 25.00000000000000000, 1.000000000000000000 ) ) ;
#70 = PERSON_AND_ORGANIZATION ( #88, #39 ) ;
#71 = APPROVAL_STATUS ( 'not_yet_approved' ) ;
#72 = CC_DESIGN_PERSON_AND_ORGANIZATION_ASSIGNMENT ( #147, #124, ( #77 ) ) ;
#73 = APPROVAL_ROLE ( '' ) ;
#74 = CIRCLE ( 'NONE', #163, 25.00000000000000000 ) ;
#75 = APPROVAL_DATE_TIME ( #112, #64 ) ;
#76 = CIRCLE ( 'NONE', #28, 25.00000000000000000 ) ;
#77 = SECURITY_CLASSIFICATION ( '', '', #168 ) ;
#78 = CC_DESIGN_PERSON_AND_ORGANIZATION_ASSIGNMENT ( #70, #161, ( #129 ) ) ;
#79 = AXIS2_PLACEMENT_3D ( 'NONE', #46, #142, #80 ) ;
#80 = DIRECTION ( 'NONE',  ( 4.275831445896958607E-31, 1.000000000000000000, 1.224646799147353207E-16 ) ) ;
#81 = CALENDAR_DATE ( 2021, 7, 12 ) ;
#82 = DIRECTION ( 'NONE',  ( 4.314083075427408311E-31, 1.000000000000000000, 1.214306433183764966E-16 ) ) ;
#83 = UNCERTAINTY_MEASURE_WITH_UNIT (LENGTH_MEASURE( 1.000000000000000082E-05 ), #5, 'distance_accuracy_value', 'NONE');
#84 = PERSON_AND_ORGANIZATION ( #88, #39 ) ;
#85 = APPROVAL_DATE_TIME ( #113, #97 ) ;
#86 = PERSON_AND_ORGANIZATION ( #88, #39 ) ;
#87 = PRODUCT_RELATED_PRODUCT_CATEGORY ( 'detail', '', ( #129 ) ) ;
#88 = PERSON ( 'UNSPECIFIED', 'UNSPECIFIED', 'UNSPECIFIED', ('UNSPECIFIED'), ('UNSPECIFIED'), ('UNSPECIFIED') ) ;
#89 = PERSON_AND_ORGANIZATION_ROLE ( 'creator' ) ;
#90 = DIRECTION ( 'NONE',  ( 3.491481338843133355E-15, -1.224646799147353207E-16, 1.000000000000000000 ) ) ;
#91 = CIRCLE ( 'NONE', #118, 6.499999999999999112 ) ;
#92 = CYLINDRICAL_SURFACE ( 'NONE', #42, 6.499999999999999112 ) ;
#93 = CYLINDRICAL_SURFACE ( 'NONE', #79, 25.00000000000000000 ) ;
#94 = LOCAL_TIME ( 10, 17, 55.00000000000000000, #12 ) ;
#95 = LOCAL_TIME ( 10, 17, 55.00000000000000000, #150 ) ;
#96 =( NAMED_UNIT ( * ) SI_UNIT ( $, .STERADIAN. ) SOLID_ANGLE_UNIT ( ) );
#97 = APPROVAL ( #26, 'UNSPECIFIED' ) ;
#98 = PERSON_AND_ORGANIZATION_ROLE ( 'design_supplier' ) ;
#99 = EDGE_CURVE ( 'NONE', #7, #7, #91, .T. ) ;
#100 = CALENDAR_DATE ( 2021, 7, 12 ) ;
#101 = CARTESIAN_POINT ( 'NONE',  ( 3.491481338843129805E-15, 6.500000000000000000, 0.9999999999999988898 ) ) ;
#102 = EDGE_CURVE ( 'NONE', #33, #33, #76, .T. ) ;
#103 = EDGE_LOOP ( 'NONE', ( #128 ) ) ;
#104 = ADVANCED_BREP_SHAPE_REPRESENTATION ( '977539', ( #17, #54 ), #109 ) ;
#105 = LOCAL_TIME ( 10, 17, 55.00000000000000000, #52 ) ;
#106 = DIRECTION ( 'NONE',  ( -3.491481338843133355E-15, 1.224646799147353207E-16, -1.000000000000000000 ) ) ;
#107 = DIRECTION ( 'NONE',  ( 0.0000000000000000000, 0.0000000000000000000, 1.000000000000000000 ) ) ;
#108 = VERTEX_POINT ( 'NONE', #119 ) ;
#109 =( GEOMETRIC_REPRESENTATION_CONTEXT ( 3 ) GLOBAL_UNCERTAINTY_ASSIGNED_CONTEXT ( ( #83 ) ) GLOBAL_UNIT_ASSIGNED_CONTEXT ( ( #5, #49, #96 ) ) REPRESENTATION_CONTEXT ( 'NONE', 'WORKASPACE' ) );
#110 = EDGE_CURVE ( 'NONE', #108, #108, #74, .T. ) ;
#111 = COORDINATED_UNIVERSAL_TIME_OFFSET ( 1, 0, .AHEAD. ) ;
#112 = DATE_AND_TIME ( #81, #157 ) ;
#113 = DATE_AND_TIME ( #139, #95 ) ;
#114 = PERSON_AND_ORGANIZATION ( #88, #39 ) ;
#115 = APPLICATION_CONTEXT ( 'configuration controlled 3d designs of mechanical parts and assemblies' ) ;
#116 = ORIENTED_EDGE ( 'NONE', *, *, #102, .T. ) ;
#117 = ADVANCED_FACE ( 'NONE', ( #133, #19 ), #93, .T. ) ;
#118 = AXIS2_PLACEMENT_3D ( 'NONE', #126, #132, #148 ) ;
#119 = CARTESIAN_POINT ( 'NONE',  ( -1.068957861474239634E-29, 25.00000000000000000, -3.061616997868383043E-15 ) ) ;
#120 = CARTESIAN_POINT ( 'NONE',  ( 3.491481338843130200E-15, -1.224646799147352221E-16, 0.9999999999999991118 ) ) ;
#121 = PRODUCT_DEFINITION_SHAPE ( 'NONE', 'NONE',  #138 ) ;
#122 = CARTESIAN_POINT ( 'NONE',  ( -9.299933394825885714E-30, 6.499999999999999112, -2.663606788145493417E-15 ) ) ;
#123 = PERSON_AND_ORGANIZATION ( #88, #39 ) ;
#124 = PERSON_AND_ORGANIZATION_ROLE ( 'classification_officer' ) ;
#125 = ORIENTED_EDGE ( 'NONE', *, *, #110, .F. ) ;
#126 = CARTESIAN_POINT ( 'NONE',  ( -2.779290439833022656E-30, 9.748438587302073356E-32, -7.960204194457794491E-16 ) ) ;
#127 = CC_DESIGN_PERSON_AND_ORGANIZATION_ASSIGNMENT ( #114, #89, ( #48 ) ) ;
#128 = ORIENTED_EDGE ( 'NONE', *, *, #99, .T. ) ;
#129 = PRODUCT ( '977539', '977539', '', ( #57 ) ) ;
#130 = CC_DESIGN_APPROVAL ( #64, ( #48 ) ) ;
#131 = CARTESIAN_POINT ( 'NONE',  ( 0.0000000000000000000, 0.0000000000000000000, 0.0000000000000000000 ) ) ;
#132 = DIRECTION ( 'NONE',  ( -3.491481338843133355E-15, 1.224646799147353207E-16, -1.000000000000000000 ) ) ;
#133 = FACE_OUTER_BOUND ( 'NONE', #53, .T. ) ;
#134 = ADVANCED_FACE ( 'NONE', ( #45, #65 ), #146, .T. ) ;
#135 = DATE_AND_TIME ( #166, #158 ) ;
#136 = APPROVAL_PERSON_ORGANIZATION ( #86, #97, #62 ) ;
#137 = SHAPE_DEFINITION_REPRESENTATION ( #121, #104 ) ;
#138 = PRODUCT_DEFINITION ( 'UNKNOWN', '', #48, #25 ) ;
#139 = CALENDAR_DATE ( 2021, 7, 12 ) ;
#140 = ORIENTED_EDGE ( 'NONE', *, *, #151, .F. ) ;
#141 = ORIENTED_EDGE ( 'NONE', *, *, #102, .F. ) ;
#142 = DIRECTION ( 'NONE',  ( -3.491481338843133355E-15, 1.224646799147353207E-16, -1.000000000000000000 ) ) ;
#143 = DIRECTION ( 'NONE',  ( 4.275831445896958607E-31, 1.000000000000000000, 1.224646799147353207E-16 ) ) ;
#144 = AXIS2_PLACEMENT_3D ( 'NONE', #101, #90, #155 ) ;
#145 = DIRECTION ( 'NONE',  ( 4.740750632337811128E-31, 1.000000000000000000, 1.334402673828313093E-16 ) ) ;
#146 = PLANE ( 'NONE',  #11 ) ;
#147 = PERSON_AND_ORGANIZATION ( #88, #39 ) ;
#148 = DIRECTION ( 'NONE',  ( 4.275831445896958607E-31, 1.000000000000000000, 1.224646799147353207E-16 ) ) ;
#149 = ADVANCED_FACE ( 'NONE', ( #20, #43 ), #92, .F. ) ;
#150 = COORDINATED_UNIVERSAL_TIME_OFFSET ( 1, 0, .AHEAD. ) ;
#151 = EDGE_CURVE ( 'NONE', #164, #164, #152, .T. ) ;
#152 = CIRCLE ( 'NONE', #29, 6.500000000000000000 ) ;
#153 = EDGE_LOOP ( 'NONE', ( #140 ) ) ;
#154 = CC_DESIGN_SECURITY_CLASSIFICATION ( #77, ( #48 ) ) ;
#155 = DIRECTION ( 'NONE',  ( -4.275831445896958607E-31, -1.000000000000000000, -1.224646799147353207E-16 ) ) ;
#156 = EDGE_LOOP ( 'NONE', ( #125 ) ) ;
#157 = LOCAL_TIME ( 10, 17, 55.00000000000000000, #50 ) ;
#158 = LOCAL_TIME ( 10, 17, 55.00000000000000000, #111 ) ;
#159 = DIRECTION ( 'NONE',  ( 4.275831445896958607E-31, 1.000000000000000000, 1.224646799147353207E-16 ) ) ;
#160 = CARTESIAN_POINT ( 'NONE',  ( -2.137915722948479268E-29, 7.498798913309288477E-31, -6.123233995736766085E-15 ) ) ;
#161 = PERSON_AND_ORGANIZATION_ROLE ( 'design_owner' ) ;
#162 = CC_DESIGN_DATE_AND_TIME_ASSIGNMENT ( #135, #61, ( #138 ) ) ;
#163 = AXIS2_PLACEMENT_3D ( 'NONE', #160, #24, #159 ) ;
#164 = VERTEX_POINT ( 'NONE', #4 ) ;
#165 = DIRECTION ( 'NONE',  ( 4.275831445896958607E-31, 1.000000000000000000, 1.224646799147353207E-16 ) ) ;
#166 = CALENDAR_DATE ( 2021, 7, 12 ) ;
#167 = APPROVAL_ROLE ( '' ) ;
#168 = SECURITY_CLASSIFICATION_LEVEL ( 'unclassified' ) ;
#169 = DATE_TIME_ROLE ( 'classification_date' ) ;
ENDSEC;
END-ISO-10303-21;
