ISO-10303-21;
HEADER;
FILE_DESCRIPTION (( 'STEP AP203' ),
    '1' );
FILE_NAME ('977538.step',
    '2021-12-07T09:17:55',
    ( '' ),
    ( '' ),
    'SwSTEP 2.0',
    'SolidWorks 2019',
    '' );
FILE_SCHEMA (( 'CONFIG_CONTROL_DESIGN' ));
ENDSEC;

DATA;
#1 = PERSON ( 'UNSPECIFIED', 'UNSPECIFIED', 'UNSPECIFIED', ('UNSPECIFIED'), ('UNSPECIFIED'), ('UNSPECIFIED') ) ;
#2 = PRODUCT_DEFINITION_SHAPE ( 'NONE', 'NONE',  #88 ) ;
#3 = VERTEX_POINT ( 'NONE', #60 ) ;
#4 = LOCAL_TIME ( 10, 17, 55.00000000000000000, #101 ) ;
#5 = DIRECTION ( 'NONE',  ( -3.491481338843133355E-15, 1.224646799147353207E-16, -1.000000000000000000 ) ) ;
#6 = CARTESIAN_POINT ( 'NONE',  ( -9.299933394825885714E-30, 6.499999999999999112, -2.663606788145493417E-15 ) ) ;
#7 = APPROVAL_ROLE ( '' ) ;
#8 = EDGE_CURVE ( 'NONE', #3, #3, #17, .T. ) ;
#9 = SECURITY_CLASSIFICATION ( '', '', #140 ) ;
#10 = EDGE_LOOP ( 'NONE', ( #26 ) ) ;
#11 = DATE_TIME_ROLE ( 'creation_date' ) ;
#12 = EDGE_LOOP ( 'NONE', ( #35 ) ) ;
#13 = AXIS2_PLACEMENT_3D ( 'NONE', #159, #16, #144 ) ;
#14 = MANIFOLD_SOLID_BREP ( 'Corps-Déplacer/Copier1', #143 ) ;
#15 = APPLICATION_PROTOCOL_DEFINITION ( 'international standard', 'config_control_design', 1994, #76 ) ;
#16 = DIRECTION ( 'NONE',  ( -3.491481338843133355E-15, 1.224646799147353207E-16, -1.000000000000000000 ) ) ;
#17 = CIRCLE ( 'NONE', #18, 25.00000000000000000 ) ;
#18 = AXIS2_PLACEMENT_3D ( 'NONE', #69, #133, #138 ) ;
#19 = ADVANCED_BREP_SHAPE_REPRESENTATION ( '977538', ( #14, #100 ), #45 ) ;
#20 = CC_DESIGN_PERSON_AND_ORGANIZATION_ASSIGNMENT ( #146, #68, ( #88 ) ) ;
#21 = PERSON_AND_ORGANIZATION_ROLE ( 'design_supplier' ) ;
#22 = LOCAL_TIME ( 10, 17, 55.00000000000000000, #103 ) ;
#23 = PERSON_AND_ORGANIZATION ( #1, #27 ) ;
#24 = CARTESIAN_POINT ( 'NONE',  ( -2.779290439833022656E-30, 9.748438587302073356E-32, -7.960204194457794491E-16 ) ) ;
#25 = SHAPE_DEFINITION_REPRESENTATION ( #2, #19 ) ;
#26 = ORIENTED_EDGE ( 'NONE', *, *, #94, .T. ) ;
#27 = ORGANIZATION ( 'UNSPECIFIED', 'UNSPECIFIED', '' ) ;
#28 = APPROVAL ( #90, 'UNSPECIFIED' ) ;
#29 = CC_DESIGN_PERSON_AND_ORGANIZATION_ASSIGNMENT ( #92, #39, ( #9 ) ) ;
#30 = DIRECTION ( 'NONE',  ( 4.275831445896958607E-31, 1.000000000000000000, 1.224646799147353207E-16 ) ) ;
#31 = LOCAL_TIME ( 10, 17, 55.00000000000000000, #74 ) ;
#32 = DIRECTION ( 'NONE',  ( -3.491481338843133355E-15, 1.224646799147353207E-16, -1.000000000000000000 ) ) ;
#33 = EDGE_CURVE ( 'NONE', #109, #109, #167, .T. ) ;
#34 =( NAMED_UNIT ( * ) PLANE_ANGLE_UNIT ( ) SI_UNIT ( $, .RADIAN. ) );
#35 = ORIENTED_EDGE ( 'NONE', *, *, #33, .F. ) ;
#36 = FACE_OUTER_BOUND ( 'NONE', #91, .T. ) ;
#37 = AXIS2_PLACEMENT_3D ( 'NONE', #6, #98, #72 ) ;
#38 = PERSON_AND_ORGANIZATION ( #1, #27 ) ;
#39 = PERSON_AND_ORGANIZATION_ROLE ( 'classification_officer' ) ;
#40 = CALENDAR_DATE ( 2021, 7, 12 ) ;
#41 = APPROVAL_ROLE ( '' ) ;
#42 = PERSON_AND_ORGANIZATION ( #1, #27 ) ;
#43 = CC_DESIGN_DATE_AND_TIME_ASSIGNMENT ( #67, #86, ( #9 ) ) ;
#44 = PLANE ( 'NONE',  #57 ) ;
#45 =( GEOMETRIC_REPRESENTATION_CONTEXT ( 3 ) GLOBAL_UNCERTAINTY_ASSIGNED_CONTEXT ( ( #136 ) ) GLOBAL_UNIT_ASSIGNED_CONTEXT ( ( #97, #34, #157 ) ) REPRESENTATION_CONTEXT ( 'NONE', 'WORKASPACE' ) );
#46 = FACE_OUTER_BOUND ( 'NONE', #127, .T. ) ;
#47 = CC_DESIGN_PERSON_AND_ORGANIZATION_ASSIGNMENT ( #42, #147, ( #124 ) ) ;
#48 = FACE_BOUND ( 'NONE', #12, .T. ) ;
#49 = APPROVAL_DATE_TIME ( #135, #87 ) ;
#50 = PERSON_AND_ORGANIZATION ( #1, #27 ) ;
#51 = EDGE_LOOP ( 'NONE', ( #66 ) ) ;
#52 = APPROVAL_DATE_TIME ( #128, #28 ) ;
#53 = AXIS2_PLACEMENT_3D ( 'NONE', #111, #5, #30 ) ;
#54 = COORDINATED_UNIVERSAL_TIME_OFFSET ( 1, 0, .AHEAD. ) ;
#55 = APPROVAL_PERSON_ORGANIZATION ( #75, #28, #7 ) ;
#56 = DIRECTION ( 'NONE',  ( -3.491481338843133355E-15, 1.224646799147353207E-16, -1.000000000000000000 ) ) ;
#57 = AXIS2_PLACEMENT_3D ( 'NONE', #155, #117, #71 ) ;
#58 = VERTEX_POINT ( 'NONE', #95 ) ;
#59 = PRODUCT ( '977538', '977538', '', ( #89 ) ) ;
#60 = CARTESIAN_POINT ( 'NONE',  ( 2.793185071074507079E-15, 25.00000000000000000, 0.8000000000000000444 ) ) ;
#61 = ADVANCED_FACE ( 'NONE', ( #105, #152 ), #44, .T. ) ;
#62 = APPROVAL ( #163, 'UNSPECIFIED' ) ;
#63 = PLANE ( 'NONE',  #37 ) ;
#64 = CYLINDRICAL_SURFACE ( 'NONE', #120, 25.00000000000000000 ) ;
#65 = DATE_AND_TIME ( #78, #84 ) ;
#66 = ORIENTED_EDGE ( 'NONE', *, *, #33, .T. ) ;
#67 = DATE_AND_TIME ( #80, #31 ) ;
#68 = PERSON_AND_ORGANIZATION_ROLE ( 'creator' ) ;
#69 = CARTESIAN_POINT ( 'NONE',  ( 2.793185071074496035E-15, -9.797174393178789173E-17, 0.7999999999999970468 ) ) ;
#70 = AXIS2_PLACEMENT_3D ( 'NONE', #154, #56, #107 ) ;
#71 = DIRECTION ( 'NONE',  ( -4.275831445896958607E-31, -1.000000000000000000, -1.224646799147353207E-16 ) ) ;
#72 = DIRECTION ( 'NONE',  ( 4.275831445896958607E-31, 1.000000000000000000, 1.224646799147353207E-16 ) ) ;
#73 = ORIENTED_EDGE ( 'NONE', *, *, #94, .F. ) ;
#74 = COORDINATED_UNIVERSAL_TIME_OFFSET ( 1, 0, .AHEAD. ) ;
#75 = PERSON_AND_ORGANIZATION ( #1, #27 ) ;
#76 = APPLICATION_CONTEXT ( 'configuration controlled 3d designs of mechanical parts and assemblies' ) ;
#77 = CC_DESIGN_PERSON_AND_ORGANIZATION_ASSIGNMENT ( #38, #21, ( #124 ) ) ;
#78 = CALENDAR_DATE ( 2021, 7, 12 ) ;
#79 = EDGE_LOOP ( 'NONE', ( #73 ) ) ;
#80 = CALENDAR_DATE ( 2021, 7, 12 ) ;
#81 = CIRCLE ( 'NONE', #53, 25.00000000000000000 ) ;
#82 = CC_DESIGN_PERSON_AND_ORGANIZATION_ASSIGNMENT ( #23, #125, ( #59 ) ) ;
#83 = FACE_OUTER_BOUND ( 'NONE', #51, .T. ) ;
#84 = LOCAL_TIME ( 10, 17, 55.00000000000000000, #151 ) ;
#85 = VERTEX_POINT ( 'NONE', #134 ) ;
#86 = DATE_TIME_ROLE ( 'classification_date' ) ;
#87 = APPROVAL ( #115, 'UNSPECIFIED' ) ;
#88 = PRODUCT_DEFINITION ( 'UNKNOWN', '', #124, #126 ) ;
#89 = MECHANICAL_CONTEXT ( 'NONE', #76, 'mechanical' ) ;
#90 = APPROVAL_STATUS ( 'not_yet_approved' ) ;
#91 = EDGE_LOOP ( 'NONE', ( #129 ) ) ;
#92 = PERSON_AND_ORGANIZATION ( #1, #27 ) ;
#93 = CARTESIAN_POINT ( 'NONE',  ( 0.0000000000000000000, 0.0000000000000000000, 0.0000000000000000000 ) ) ;
#94 = EDGE_CURVE ( 'NONE', #85, #85, #108, .T. ) ;
#95 = CARTESIAN_POINT ( 'NONE',  ( -1.068957861474239634E-29, 25.00000000000000000, -3.061616997868383043E-15 ) ) ;
#96 = ORIENTED_EDGE ( 'NONE', *, *, #164, .T. ) ;
#97 =( LENGTH_UNIT ( ) NAMED_UNIT ( * ) SI_UNIT ( .MILLI., .METRE. ) );
#98 = DIRECTION ( 'NONE',  ( -3.491481338843133355E-15, 1.224646799147353207E-16, -1.000000000000000000 ) ) ;
#99 = CC_DESIGN_APPROVAL ( #87, ( #124 ) ) ;
#100 = AXIS2_PLACEMENT_3D ( 'NONE', #93, #123, #104 ) ;
#101 = COORDINATED_UNIVERSAL_TIME_OFFSET ( 1, 0, .AHEAD. ) ;
#102 = ADVANCED_FACE ( 'NONE', ( #83, #160 ), #112, .F. ) ;
#103 = COORDINATED_UNIVERSAL_TIME_OFFSET ( 1, 0, .AHEAD. ) ;
#104 = DIRECTION ( 'NONE',  ( 1.000000000000000000, 0.0000000000000000000, 0.0000000000000000000 ) ) ;
#105 = FACE_BOUND ( 'NONE', #10, .T. ) ;
#106 = CC_DESIGN_SECURITY_CLASSIFICATION ( #9, ( #124 ) ) ;
#107 = DIRECTION ( 'NONE',  ( 4.148156803295584847E-31, 1.000000000000000000, 1.167602339599773987E-16 ) ) ;
#108 = CIRCLE ( 'NONE', #70, 6.500000000000000000 ) ;
#109 = VERTEX_POINT ( 'NONE', #161 ) ;
#110 = ADVANCED_FACE ( 'NONE', ( #46, #36 ), #64, .T. ) ;
#111 = CARTESIAN_POINT ( 'NONE',  ( -2.137915722948479268E-29, 7.498798913309288477E-31, -6.123233995736766085E-15 ) ) ;
#112 = CYLINDRICAL_SURFACE ( 'NONE', #13, 6.499999999999999112 ) ;
#113 = LOCAL_TIME ( 10, 17, 55.00000000000000000, #54 ) ;
#114 = CALENDAR_DATE ( 2021, 7, 12 ) ;
#115 = APPROVAL_STATUS ( 'not_yet_approved' ) ;
#116 = DIRECTION ( 'NONE',  ( -3.491481338843133355E-15, 1.224646799147353207E-16, -1.000000000000000000 ) ) ;
#117 = DIRECTION ( 'NONE',  ( 3.491481338843133355E-15, -1.224646799147353207E-16, 1.000000000000000000 ) ) ;
#118 = APPROVAL_PERSON_ORGANIZATION ( #148, #62, #139 ) ;
#119 = CARTESIAN_POINT ( 'NONE',  ( 0.0000000000000000000, 0.0000000000000000000, 0.0000000000000000000 ) ) ;
#120 = AXIS2_PLACEMENT_3D ( 'NONE', #119, #32, #145 ) ;
#121 = FACE_OUTER_BOUND ( 'NONE', #149, .T. ) ;
#122 = ORIENTED_EDGE ( 'NONE', *, *, #8, .T. ) ;
#123 = DIRECTION ( 'NONE',  ( 0.0000000000000000000, 0.0000000000000000000, 1.000000000000000000 ) ) ;
#124 = PRODUCT_DEFINITION_FORMATION_WITH_SPECIFIED_SOURCE ( 'ANY', '', #59, .NOT_KNOWN. ) ;
#125 = PERSON_AND_ORGANIZATION_ROLE ( 'design_owner' ) ;
#126 = DESIGN_CONTEXT ( 'detailed design', #153, 'design' ) ;
#127 = EDGE_LOOP ( 'NONE', ( #122 ) ) ;
#128 = DATE_AND_TIME ( #114, #113 ) ;
#129 = ORIENTED_EDGE ( 'NONE', *, *, #164, .F. ) ;
#130 = AXIS2_PLACEMENT_3D ( 'NONE', #24, #116, #169 ) ;
#131 = ADVANCED_FACE ( 'NONE', ( #121, #48 ), #63, .T. ) ;
#132 = PRODUCT_RELATED_PRODUCT_CATEGORY ( 'detail', '', ( #59 ) ) ;
#133 = DIRECTION ( 'NONE',  ( -3.491481338843133355E-15, 1.224646799147353207E-16, -1.000000000000000000 ) ) ;
#134 = CARTESIAN_POINT ( 'NONE',  ( 2.793185071074507079E-15, 6.500000000000000000, 0.8000000000000000444 ) ) ;
#135 = DATE_AND_TIME ( #162, #22 ) ;
#136 = UNCERTAINTY_MEASURE_WITH_UNIT (LENGTH_MEASURE( 1.000000000000000082E-05 ), #97, 'distance_accuracy_value', 'NONE');
#137 = APPROVAL_PERSON_ORGANIZATION ( #50, #87, #41 ) ;
#138 = DIRECTION ( 'NONE',  ( 4.314083075427408311E-31, 1.000000000000000000, 1.214306433183764966E-16 ) ) ;
#139 = APPROVAL_ROLE ( '' ) ;
#140 = SECURITY_CLASSIFICATION_LEVEL ( 'unclassified' ) ;
#141 = ORIENTED_EDGE ( 'NONE', *, *, #8, .F. ) ;
#142 = CC_DESIGN_APPROVAL ( #28, ( #9 ) ) ;
#143 = CLOSED_SHELL ( 'NONE', ( #131, #110, #61, #102 ) ) ;
#144 = DIRECTION ( 'NONE',  ( 4.275831445896958607E-31, 1.000000000000000000, 1.224646799147353207E-16 ) ) ;
#145 = DIRECTION ( 'NONE',  ( 4.275831445896958607E-31, 1.000000000000000000, 1.224646799147353207E-16 ) ) ;
#146 = PERSON_AND_ORGANIZATION ( #1, #27 ) ;
#147 = PERSON_AND_ORGANIZATION_ROLE ( 'creator' ) ;
#148 = PERSON_AND_ORGANIZATION ( #1, #27 ) ;
#149 = EDGE_LOOP ( 'NONE', ( #96 ) ) ;
#150 = APPLICATION_PROTOCOL_DEFINITION ( 'international standard', 'config_control_design', 1994, #153 ) ;
#151 = COORDINATED_UNIVERSAL_TIME_OFFSET ( 1, 0, .AHEAD. ) ;
#152 = FACE_OUTER_BOUND ( 'NONE', #165, .T. ) ;
#153 = APPLICATION_CONTEXT ( 'configuration controlled 3d designs of mechanical parts and assemblies' ) ;
#154 = CARTESIAN_POINT ( 'NONE',  ( 2.793185071074504318E-15, -9.797174393178816290E-17, 0.7999999999999992673 ) ) ;
#155 = CARTESIAN_POINT ( 'NONE',  ( 2.793185071074503134E-15, 6.500000000000000000, 0.7999999999999989342 ) ) ;
#156 = CC_DESIGN_APPROVAL ( #62, ( #88 ) ) ;
#157 =( NAMED_UNIT ( * ) SI_UNIT ( $, .STERADIAN. ) SOLID_ANGLE_UNIT ( ) );
#158 = CC_DESIGN_DATE_AND_TIME_ASSIGNMENT ( #65, #11, ( #88 ) ) ;
#159 = CARTESIAN_POINT ( 'NONE',  ( 0.0000000000000000000, 0.0000000000000000000, 0.0000000000000000000 ) ) ;
#160 = FACE_OUTER_BOUND ( 'NONE', #79, .T. ) ;
#161 = CARTESIAN_POINT ( 'NONE',  ( 0.0000000000000000000, 6.499999999999999112, 0.0000000000000000000 ) ) ;
#162 = CALENDAR_DATE ( 2021, 7, 12 ) ;
#163 = APPROVAL_STATUS ( 'not_yet_approved' ) ;
#164 = EDGE_CURVE ( 'NONE', #58, #58, #81, .T. ) ;
#165 = EDGE_LOOP ( 'NONE', ( #141 ) ) ;
#166 = APPROVAL_DATE_TIME ( #168, #62 ) ;
#167 = CIRCLE ( 'NONE', #130, 6.499999999999999112 ) ;
#168 = DATE_AND_TIME ( #40, #4 ) ;
#169 = DIRECTION ( 'NONE',  ( 4.275831445896958607E-31, 1.000000000000000000, 1.224646799147353207E-16 ) ) ;
ENDSEC;
END-ISO-10303-21;
