ISO-10303-21;
HEADER;
FILE_DESCRIPTION (( 'STEP AP203' ),
    '1' );
FILE_NAME ('977528.step',
    '2021-12-07T09:13:31',
    ( '' ),
    ( '' ),
    'SwSTEP 2.0',
    'SolidWorks 2019',
    '' );
FILE_SCHEMA (( 'CONFIG_CONTROL_DESIGN' ));
ENDSEC;

DATA;
#1 = PERSON_AND_ORGANIZATION ( #145, #70 ) ;
#2 = PRODUCT_DEFINITION ( 'UNKNOWN', '', #60, #167 ) ;
#3 = FACE_OUTER_BOUND ( 'NONE', #74, .T. ) ;
#4 = LOCAL_TIME ( 10, 13, 31.00000000000000000, #107 ) ;
#5 = CC_DESIGN_APPROVAL ( #63, ( #60 ) ) ;
#6 = CIRCLE ( 'NONE', #39, 50.00000000000000000 ) ;
#7 = ORIENTED_EDGE ( 'NONE', *, *, #49, .T. ) ;
#8 = EDGE_CURVE ( 'NONE', #164, #164, #6, .T. ) ;
#9 = PERSON_AND_ORGANIZATION ( #145, #70 ) ;
#10 = ADVANCED_FACE ( 'NONE', ( #159, #3 ), #45, .F. ) ;
#11 =( LENGTH_UNIT ( ) NAMED_UNIT ( * ) SI_UNIT ( .MILLI., .METRE. ) );
#12 = DIRECTION ( 'NONE',  ( -3.491481338843133355E-15, 1.224646799147352961E-16, -1.000000000000000000 ) ) ;
#13 = CARTESIAN_POINT ( 'NONE',  ( 3.491481338843116395E-15, 11.00000000000000000, 0.9999999999999952260 ) ) ;
#14 = APPROVAL_DATE_TIME ( #169, #46 ) ;
#15 = ADVANCED_FACE ( 'NONE', ( #86, #65 ), #127, .T. ) ;
#16 = ORIENTED_EDGE ( 'NONE', *, *, #163, .T. ) ;
#17 = ADVANCED_FACE ( 'NONE', ( #117, #161 ), #33, .T. ) ;
#18 = ORIENTED_EDGE ( 'NONE', *, *, #35, .T. ) ;
#19 = LOCAL_TIME ( 10, 13, 31.00000000000000000, #95 ) ;
#20 = CARTESIAN_POINT ( 'NONE',  ( -2.137915722948478708E-29, 7.498798913309285850E-31, -6.123233995736764507E-15 ) ) ;
#21 = EDGE_LOOP ( 'NONE', ( #7 ) ) ;
#22 = CARTESIAN_POINT ( 'NONE',  ( 2.736911063134408342E-45, 50.00000000000000000, 0.0000000000000000000 ) ) ;
#23 = APPLICATION_CONTEXT ( 'configuration controlled 3d designs of mechanical parts and assemblies' ) ;
#24 = PERSON_AND_ORGANIZATION ( #145, #70 ) ;
#25 = DIRECTION ( 'NONE',  ( -3.491481338843133355E-15, 1.224646799147352961E-16, -1.000000000000000000 ) ) ;
#26 = APPLICATION_PROTOCOL_DEFINITION ( 'international standard', 'config_control_design', 1994, #166 ) ;
#27 = CC_DESIGN_SECURITY_CLASSIFICATION ( #131, ( #60 ) ) ;
#28 = CALENDAR_DATE ( 2021, 7, 12 ) ;
#29 = COORDINATED_UNIVERSAL_TIME_OFFSET ( 1, 0, .AHEAD. ) ;
#30 = APPROVAL_STATUS ( 'not_yet_approved' ) ;
#31 = CIRCLE ( 'NONE', #54, 50.00000000000000000 ) ;
#32 = DIRECTION ( 'NONE',  ( -3.491481338843133355E-15, 1.224646799147352961E-16, -1.000000000000000000 ) ) ;
#33 = PLANE ( 'NONE',  #34 ) ;
#34 = AXIS2_PLACEMENT_3D ( 'NONE', #47, #150, #87 ) ;
#35 = EDGE_CURVE ( 'NONE', #69, #69, #31, .T. ) ;
#36 = DIRECTION ( 'NONE',  ( -3.491481338843133355E-15, 1.224646799147352961E-16, -1.000000000000000000 ) ) ;
#37 = MECHANICAL_CONTEXT ( 'NONE', #166, 'mechanical' ) ;
#38 = COORDINATED_UNIVERSAL_TIME_OFFSET ( 1, 0, .AHEAD. ) ;
#39 = AXIS2_PLACEMENT_3D ( 'NONE', #102, #101, #125 ) ;
#40 = DIRECTION ( 'NONE',  ( 0.0000000000000000000, 0.0000000000000000000, 1.000000000000000000 ) ) ;
#41 = CALENDAR_DATE ( 2021, 7, 12 ) ;
#42 = PERSON_AND_ORGANIZATION_ROLE ( 'design_supplier' ) ;
#43 = EDGE_LOOP ( 'NONE', ( #100 ) ) ;
#44 = AXIS2_PLACEMENT_3D ( 'NONE', #103, #40, #105 ) ;
#45 = CYLINDRICAL_SURFACE ( 'NONE', #106, 11.00000000000000000 ) ;
#46 = APPROVAL ( #30, 'UNSPECIFIED' ) ;
#47 = CARTESIAN_POINT ( 'NONE',  ( 3.491481338843122706E-15, 50.00000000000000000, 0.9999999999999970024 ) ) ;
#48 = DATE_TIME_ROLE ( 'creation_date' ) ;
#49 = EDGE_CURVE ( 'NONE', #118, #118, #138, .T. ) ;
#50 = VERTEX_POINT ( 'NONE', #13 ) ;
#51 = CALENDAR_DATE ( 2021, 7, 12 ) ;
#52 = DATE_AND_TIME ( #142, #149 ) ;
#53 = PERSON_AND_ORGANIZATION ( #145, #70 ) ;
#54 = AXIS2_PLACEMENT_3D ( 'NONE', #20, #12, #66 ) ;
#55 = SHAPE_DEFINITION_REPRESENTATION ( #75, #57 ) ;
#56 = AXIS2_PLACEMENT_3D ( 'NONE', #123, #79, #143 ) ;
#57 = ADVANCED_BREP_SHAPE_REPRESENTATION ( '977528', ( #81, #44 ), #97 ) ;
#58 = PERSON_AND_ORGANIZATION_ROLE ( 'creator' ) ;
#59 = APPROVAL_PERSON_ORGANIZATION ( #135, #46, #85 ) ;
#60 = PRODUCT_DEFINITION_FORMATION_WITH_SPECIFIED_SOURCE ( 'ANY', '', #120, .NOT_KNOWN. ) ;
#61 = CARTESIAN_POINT ( 'NONE',  ( 8.337871319499069370E-30, 50.00000000000000000, 2.388061258337338939E-15 ) ) ;
#62 = EDGE_LOOP ( 'NONE', ( #16 ) ) ;
#63 = APPROVAL ( #129, 'UNSPECIFIED' ) ;
#64 = LOCAL_TIME ( 10, 13, 31.00000000000000000, #168 ) ;
#65 = FACE_BOUND ( 'NONE', #116, .T. ) ;
#66 = DIRECTION ( 'NONE',  ( 4.275831445896957731E-31, 1.000000000000000000, 1.224646799147352961E-16 ) ) ;
#67 = PERSON_AND_ORGANIZATION_ROLE ( 'design_owner' ) ;
#68 = DIRECTION ( 'NONE',  ( 4.275831445896957731E-31, 1.000000000000000000, 1.224646799147352961E-16 ) ) ;
#69 = VERTEX_POINT ( 'NONE', #22 ) ;
#70 = ORGANIZATION ( 'UNSPECIFIED', 'UNSPECIFIED', '' ) ;
#71 = PERSON_AND_ORGANIZATION ( #145, #70 ) ;
#72 = EDGE_LOOP ( 'NONE', ( #18 ) ) ;
#73 = EDGE_LOOP ( 'NONE', ( #139 ) ) ;
#74 = EDGE_LOOP ( 'NONE', ( #137 ) ) ;
#75 = PRODUCT_DEFINITION_SHAPE ( 'NONE', 'NONE',  #2 ) ;
#76 =( NAMED_UNIT ( * ) SI_UNIT ( $, .STERADIAN. ) SOLID_ANGLE_UNIT ( ) );
#77 = CC_DESIGN_DATE_AND_TIME_ASSIGNMENT ( #147, #98, ( #131 ) ) ;
#78 = DIRECTION ( 'NONE',  ( 4.275831445896957731E-31, 1.000000000000000000, 1.224646799147352961E-16 ) ) ;
#79 = DIRECTION ( 'NONE',  ( -3.491481338843133355E-15, 1.224646799147352961E-16, -1.000000000000000000 ) ) ;
#80 = APPROVAL_PERSON_ORGANIZATION ( #24, #63, #96 ) ;
#81 = MANIFOLD_SOLID_BREP ( 'Corps-Déplacer/Copier1', #94 ) ;
#82 = CC_DESIGN_PERSON_AND_ORGANIZATION_ASSIGNMENT ( #112, #58, ( #60 ) ) ;
#83 = APPROVAL_ROLE ( '' ) ;
#84 = LOCAL_TIME ( 10, 13, 31.00000000000000000, #29 ) ;
#85 = APPROVAL_ROLE ( '' ) ;
#86 = FACE_OUTER_BOUND ( 'NONE', #72, .T. ) ;
#87 = DIRECTION ( 'NONE',  ( -4.275831445896957731E-31, -1.000000000000000000, -1.224646799147352961E-16 ) ) ;
#88 = CARTESIAN_POINT ( 'NONE',  ( 3.491481338843112845E-15, 50.00000000000000000, 0.9999999999999940048 ) ) ;
#89 = APPROVAL_PERSON_ORGANIZATION ( #53, #144, #83 ) ;
#90 = CARTESIAN_POINT ( 'NONE',  ( 0.0000000000000000000, 11.00000000000000000, 0.0000000000000000000 ) ) ;
#91 = PERSON_AND_ORGANIZATION_ROLE ( 'creator' ) ;
#92 = CC_DESIGN_PERSON_AND_ORGANIZATION_ASSIGNMENT ( #71, #110, ( #131 ) ) ;
#93 = CARTESIAN_POINT ( 'NONE',  ( 0.0000000000000000000, 0.0000000000000000000, 0.0000000000000000000 ) ) ;
#94 = CLOSED_SHELL ( 'NONE', ( #15, #10, #17, #157 ) ) ;
#95 = COORDINATED_UNIVERSAL_TIME_OFFSET ( 1, 0, .AHEAD. ) ;
#96 = APPROVAL_ROLE ( '' ) ;
#97 =( GEOMETRIC_REPRESENTATION_CONTEXT ( 3 ) GLOBAL_UNCERTAINTY_ASSIGNED_CONTEXT ( ( #122 ) ) GLOBAL_UNIT_ASSIGNED_CONTEXT ( ( #11, #141, #76 ) ) REPRESENTATION_CONTEXT ( 'NONE', 'WORKASPACE' ) );
#98 = DATE_TIME_ROLE ( 'classification_date' ) ;
#99 = APPROVAL_DATE_TIME ( #134, #63 ) ;
#100 = ORIENTED_EDGE ( 'NONE', *, *, #35, .F. ) ;
#101 = DIRECTION ( 'NONE',  ( -3.491481338843133355E-15, 1.224646799147352961E-16, -1.000000000000000000 ) ) ;
#102 = CARTESIAN_POINT ( 'NONE',  ( 3.491481338843091151E-15, -1.224646799147338170E-16, 0.9999999999999878986 ) ) ;
#103 = CARTESIAN_POINT ( 'NONE',  ( 0.0000000000000000000, 0.0000000000000000000, 0.0000000000000000000 ) ) ;
#104 = DATE_AND_TIME ( #51, #19 ) ;
#105 = DIRECTION ( 'NONE',  ( 1.000000000000000000, 0.0000000000000000000, 0.0000000000000000000 ) ) ;
#106 = AXIS2_PLACEMENT_3D ( 'NONE', #114, #32, #128 ) ;
#107 = COORDINATED_UNIVERSAL_TIME_OFFSET ( 1, 0, .AHEAD. ) ;
#108 = CC_DESIGN_DATE_AND_TIME_ASSIGNMENT ( #52, #48, ( #2 ) ) ;
#109 = CC_DESIGN_APPROVAL ( #46, ( #131 ) ) ;
#110 = PERSON_AND_ORGANIZATION_ROLE ( 'classification_officer' ) ;
#111 = CC_DESIGN_PERSON_AND_ORGANIZATION_ASSIGNMENT ( #9, #67, ( #120 ) ) ;
#112 = PERSON_AND_ORGANIZATION ( #145, #70 ) ;
#113 = CC_DESIGN_APPROVAL ( #144, ( #2 ) ) ;
#114 = CARTESIAN_POINT ( 'NONE',  ( 0.0000000000000000000, 0.0000000000000000000, 0.0000000000000000000 ) ) ;
#115 = DIRECTION ( 'NONE',  ( -3.491481338843133355E-15, 1.224646799147352961E-16, -1.000000000000000000 ) ) ;
#116 = EDGE_LOOP ( 'NONE', ( #158 ) ) ;
#117 = FACE_BOUND ( 'NONE', #62, .T. ) ;
#118 = VERTEX_POINT ( 'NONE', #90 ) ;
#119 = FACE_OUTER_BOUND ( 'NONE', #136, .T. ) ;
#120 = PRODUCT ( '977528', '977528', '', ( #37 ) ) ;
#121 = APPLICATION_PROTOCOL_DEFINITION ( 'international standard', 'config_control_design', 1994, #23 ) ;
#122 = UNCERTAINTY_MEASURE_WITH_UNIT (LENGTH_MEASURE( 1.000000000000000082E-05 ), #11, 'distance_accuracy_value', 'NONE');
#123 = CARTESIAN_POINT ( 'NONE',  ( 3.491481338843112056E-15, -1.224646799147345319E-16, 0.9999999999999940048 ) ) ;
#124 = CC_DESIGN_PERSON_AND_ORGANIZATION_ASSIGNMENT ( #153, #91, ( #2 ) ) ;
#125 = DIRECTION ( 'NONE',  ( 4.314083075427408311E-31, 1.000000000000000000, 1.214306433183764966E-16 ) ) ;
#126 = CC_DESIGN_PERSON_AND_ORGANIZATION_ASSIGNMENT ( #1, #42, ( #60 ) ) ;
#127 = PLANE ( 'NONE',  #146 ) ;
#128 = DIRECTION ( 'NONE',  ( 4.275831445896957731E-31, 1.000000000000000000, 1.224646799147352961E-16 ) ) ;
#129 = APPROVAL_STATUS ( 'not_yet_approved' ) ;
#130 = AXIS2_PLACEMENT_3D ( 'NONE', #93, #25, #78 ) ;
#131 = SECURITY_CLASSIFICATION ( '', '', #156 ) ;
#132 = FACE_OUTER_BOUND ( 'NONE', #43, .T. ) ;
#133 = CYLINDRICAL_SURFACE ( 'NONE', #130, 50.00000000000000000 ) ;
#134 = DATE_AND_TIME ( #41, #84 ) ;
#135 = PERSON_AND_ORGANIZATION ( #145, #70 ) ;
#136 = EDGE_LOOP ( 'NONE', ( #140 ) ) ;
#137 = ORIENTED_EDGE ( 'NONE', *, *, #163, .F. ) ;
#138 = CIRCLE ( 'NONE', #152, 11.00000000000000000 ) ;
#139 = ORIENTED_EDGE ( 'NONE', *, *, #8, .F. ) ;
#140 = ORIENTED_EDGE ( 'NONE', *, *, #8, .T. ) ;
#141 =( NAMED_UNIT ( * ) PLANE_ANGLE_UNIT ( ) SI_UNIT ( $, .RADIAN. ) );
#142 = CALENDAR_DATE ( 2021, 7, 12 ) ;
#143 = DIRECTION ( 'NONE',  ( 4.202028969572151271E-31, 1.000000000000000000, 1.182766006347823109E-16 ) ) ;
#144 = APPROVAL ( #165, 'UNSPECIFIED' ) ;
#145 = PERSON ( 'UNSPECIFIED', 'UNSPECIFIED', 'UNSPECIFIED', ('UNSPECIFIED'), ('UNSPECIFIED'), ('UNSPECIFIED') ) ;
#146 = AXIS2_PLACEMENT_3D ( 'NONE', #61, #115, #160 ) ;
#147 = DATE_AND_TIME ( #28, #64 ) ;
#148 = CIRCLE ( 'NONE', #56, 11.00000000000000000 ) ;
#149 = LOCAL_TIME ( 10, 13, 31.00000000000000000, #38 ) ;
#150 = DIRECTION ( 'NONE',  ( 3.491481338843133355E-15, -1.224646799147352961E-16, 1.000000000000000000 ) ) ;
#151 = CARTESIAN_POINT ( 'NONE',  ( -4.703414590486653241E-30, 1.649735760928042712E-31, -1.347111479062088207E-15 ) ) ;
#152 = AXIS2_PLACEMENT_3D ( 'NONE', #151, #36, #68 ) ;
#153 = PERSON_AND_ORGANIZATION ( #145, #70 ) ;
#154 = CALENDAR_DATE ( 2021, 7, 12 ) ;
#155 = PRODUCT_RELATED_PRODUCT_CATEGORY ( 'detail', '', ( #120 ) ) ;
#156 = SECURITY_CLASSIFICATION_LEVEL ( 'unclassified' ) ;
#157 = ADVANCED_FACE ( 'NONE', ( #119, #132 ), #133, .T. ) ;
#158 = ORIENTED_EDGE ( 'NONE', *, *, #49, .F. ) ;
#159 = FACE_OUTER_BOUND ( 'NONE', #21, .T. ) ;
#160 = DIRECTION ( 'NONE',  ( 4.275831445896957731E-31, 1.000000000000000000, 1.224646799147352961E-16 ) ) ;
#161 = FACE_OUTER_BOUND ( 'NONE', #73, .T. ) ;
#162 = APPROVAL_DATE_TIME ( #104, #144 ) ;
#163 = EDGE_CURVE ( 'NONE', #50, #50, #148, .T. ) ;
#164 = VERTEX_POINT ( 'NONE', #88 ) ;
#165 = APPROVAL_STATUS ( 'not_yet_approved' ) ;
#166 = APPLICATION_CONTEXT ( 'configuration controlled 3d designs of mechanical parts and assemblies' ) ;
#167 = DESIGN_CONTEXT ( 'detailed design', #23, 'design' ) ;
#168 = COORDINATED_UNIVERSAL_TIME_OFFSET ( 1, 0, .AHEAD. ) ;
#169 = DATE_AND_TIME ( #154, #4 ) ;
ENDSEC;
END-ISO-10303-21;
