ISO-10303-21;
HEADER;
FILE_DESCRIPTION (( 'STEP AP203' ),
    '1' );
FILE_NAME ('977527.step',
    '2021-12-07T09:13:30',
    ( '' ),
    ( '' ),
    'SwSTEP 2.0',
    'SolidWorks 2019',
    '' );
FILE_SCHEMA (( 'CONFIG_CONTROL_DESIGN' ));
ENDSEC;

DATA;
#1 = PRODUCT_DEFINITION ( 'UNKNOWN', '', #55, #117 ) ;
#2 = COORDINATED_UNIVERSAL_TIME_OFFSET ( 1, 0, .AHEAD. ) ;
#3 = EDGE_LOOP ( 'NONE', ( #146 ) ) ;
#4 = DIRECTION ( 'NONE',  ( 3.491481338843133355E-15, -1.224646799147353207E-16, 1.000000000000000000 ) ) ;
#5 = CIRCLE ( 'NONE', #143, 11.00000000000000000 ) ;
#6 = EDGE_LOOP ( 'NONE', ( #161 ) ) ;
#7 = FACE_BOUND ( 'NONE', #6, .T. ) ;
#8 = EDGE_CURVE ( 'NONE', #86, #86, #62, .T. ) ;
#9 = LOCAL_TIME ( 10, 13, 30.00000000000000000, #66 ) ;
#10 = SECURITY_CLASSIFICATION ( '', '', #68 ) ;
#11 = DIRECTION ( 'NONE',  ( 0.0000000000000000000, 0.0000000000000000000, 1.000000000000000000 ) ) ;
#12 = PERSON_AND_ORGANIZATION ( #105, #126 ) ;
#13 = DIRECTION ( 'NONE',  ( 4.275831445896958607E-31, 1.000000000000000000, 1.224646799147353207E-16 ) ) ;
#14 = CIRCLE ( 'NONE', #82, 50.00000000000000000 ) ;
#15 = DIRECTION ( 'NONE',  ( -3.491481338843133355E-15, 1.224646799147353207E-16, -1.000000000000000000 ) ) ;
#16 = SHAPE_DEFINITION_REPRESENTATION ( #29, #77 ) ;
#17 = PERSON_AND_ORGANIZATION ( #105, #126 ) ;
#18 = APPROVAL_PERSON_ORGANIZATION ( #107, #162, #110 ) ;
#19 = ORIENTED_EDGE ( 'NONE', *, *, #141, .F. ) ;
#20 = ORIENTED_EDGE ( 'NONE', *, *, #145, .F. ) ;
#21 = PRODUCT ( '977527', '977527', '', ( #163 ) ) ;
#22 = UNCERTAINTY_MEASURE_WITH_UNIT (LENGTH_MEASURE( 1.000000000000000082E-05 ), #76, 'distance_accuracy_value', 'NONE');
#23 = CC_DESIGN_SECURITY_CLASSIFICATION ( #10, ( #55 ) ) ;
#24 = CARTESIAN_POINT ( 'NONE',  ( 0.0000000000000000000, 50.00000000000000000, 0.0000000000000000000 ) ) ;
#25 = APPROVAL_PERSON_ORGANIZATION ( #111, #54, #142 ) ;
#26 = CARTESIAN_POINT ( 'NONE',  ( 2.793185071074489724E-15, -9.797174393178765753E-17, 0.7999999999999951594 ) ) ;
#27 = ADVANCED_FACE ( 'NONE', ( #119, #96 ), #92, .T. ) ;
#28 = APPROVAL_DATE_TIME ( #131, #51 ) ;
#29 = PRODUCT_DEFINITION_SHAPE ( 'NONE', 'NONE',  #1 ) ;
#30 = ADVANCED_FACE ( 'NONE', ( #7, #118 ), #57, .T. ) ;
#31 = CARTESIAN_POINT ( 'NONE',  ( -4.703414590486653942E-30, 1.649735760928043369E-31, -1.347111479062088405E-15 ) ) ;
#32 = AXIS2_PLACEMENT_3D ( 'NONE', #166, #89, #13 ) ;
#33 = ADVANCED_FACE ( 'NONE', ( #106, #80 ), #130, .F. ) ;
#34 = APPLICATION_PROTOCOL_DEFINITION ( 'international standard', 'config_control_design', 1994, #144 ) ;
#35 = MANIFOLD_SOLID_BREP ( 'Corps-Déplacer/Copier1', #59 ) ;
#36 = CARTESIAN_POINT ( 'NONE',  ( 0.0000000000000000000, 0.0000000000000000000, 0.0000000000000000000 ) ) ;
#37 = PERSON_AND_ORGANIZATION ( #105, #126 ) ;
#38 = CC_DESIGN_DATE_AND_TIME_ASSIGNMENT ( #167, #151, ( #1 ) ) ;
#39 = CC_DESIGN_APPROVAL ( #162, ( #1 ) ) ;
#40 = EDGE_LOOP ( 'NONE', ( #73 ) ) ;
#41 = DATE_AND_TIME ( #112, #90 ) ;
#42 = EDGE_LOOP ( 'NONE', ( #19 ) ) ;
#43 = CARTESIAN_POINT ( 'NONE',  ( 2.793185071074468424E-15, -9.797174393178693030E-17, 0.7999999999999890532 ) ) ;
#44 = DIRECTION ( 'NONE',  ( -3.491481338843133355E-15, 1.224646799147353207E-16, -1.000000000000000000 ) ) ;
#45 = EDGE_LOOP ( 'NONE', ( #114 ) ) ;
#46 = EDGE_CURVE ( 'NONE', #50, #50, #85, .T. ) ;
#47 = DIRECTION ( 'NONE',  ( -3.491481338843133355E-15, 1.224646799147353207E-16, -1.000000000000000000 ) ) ;
#48 = APPROVAL_PERSON_ORGANIZATION ( #37, #51, #100 ) ;
#49 = COORDINATED_UNIVERSAL_TIME_OFFSET ( 1, 0, .AHEAD. ) ;
#50 = VERTEX_POINT ( 'NONE', #152 ) ;
#51 = APPROVAL ( #88, 'UNSPECIFIED' ) ;
#52 = DATE_AND_TIME ( #87, #116 ) ;
#53 = CC_DESIGN_APPROVAL ( #54, ( #10 ) ) ;
#54 = APPROVAL ( #153, 'UNSPECIFIED' ) ;
#55 = PRODUCT_DEFINITION_FORMATION_WITH_SPECIFIED_SOURCE ( 'ANY', '', #21, .NOT_KNOWN. ) ;
#56 = EDGE_LOOP ( 'NONE', ( #81 ) ) ;
#57 = PLANE ( 'NONE',  #123 ) ;
#58 = LOCAL_TIME ( 10, 13, 30.00000000000000000, #2 ) ;
#59 = CLOSED_SHELL ( 'NONE', ( #99, #33, #30, #27 ) ) ;
#60 = DIRECTION ( 'NONE',  ( 4.314083075427408311E-31, 1.000000000000000000, 1.214306433183764966E-16 ) ) ;
#61 = COORDINATED_UNIVERSAL_TIME_OFFSET ( 1, 0, .AHEAD. ) ;
#62 = CIRCLE ( 'NONE', #159, 11.00000000000000000 ) ;
#63 = PLANE ( 'NONE',  #32 ) ;
#64 = AXIS2_PLACEMENT_3D ( 'NONE', #94, #113, #72 ) ;
#65 = DATE_TIME_ROLE ( 'classification_date' ) ;
#66 = COORDINATED_UNIVERSAL_TIME_OFFSET ( 1, 0, .AHEAD. ) ;
#67 = DIRECTION ( 'NONE',  ( -3.491481338843133355E-15, 1.224646799147353207E-16, -1.000000000000000000 ) ) ;
#68 = SECURITY_CLASSIFICATION_LEVEL ( 'unclassified' ) ;
#69 = CARTESIAN_POINT ( 'NONE',  ( 0.0000000000000000000, 0.0000000000000000000, 0.0000000000000000000 ) ) ;
#70 = APPLICATION_CONTEXT ( 'configuration controlled 3d designs of mechanical parts and assemblies' ) ;
#71 = DIRECTION ( 'NONE',  ( -3.491481338843133355E-15, 1.224646799147353207E-16, -1.000000000000000000 ) ) ;
#72 = DIRECTION ( 'NONE',  ( 4.275831445896958607E-31, 1.000000000000000000, 1.224646799147353207E-16 ) ) ;
#73 = ORIENTED_EDGE ( 'NONE', *, *, #8, .T. ) ;
#74 = CARTESIAN_POINT ( 'NONE',  ( -2.137915722948479268E-29, 7.498798913309288477E-31, -6.123233995736766085E-15 ) ) ;
#75 = DIRECTION ( 'NONE',  ( 1.000000000000000000, 0.0000000000000000000, 0.0000000000000000000 ) ) ;
#76 =( LENGTH_UNIT ( ) NAMED_UNIT ( * ) SI_UNIT ( .MILLI., .METRE. ) );
#77 = ADVANCED_BREP_SHAPE_REPRESENTATION ( '977527', ( #35, #98 ), #164 ) ;
#78 = CC_DESIGN_PERSON_AND_ORGANIZATION_ASSIGNMENT ( #122, #148, ( #21 ) ) ;
#79 = PERSON_AND_ORGANIZATION ( #105, #126 ) ;
#80 = FACE_OUTER_BOUND ( 'NONE', #42, .T. ) ;
#81 = ORIENTED_EDGE ( 'NONE', *, *, #8, .F. ) ;
#82 = AXIS2_PLACEMENT_3D ( 'NONE', #74, #47, #139 ) ;
#83 = DIRECTION ( 'NONE',  ( 4.275831445896957731E-31, 1.000000000000000000, 1.224646799147353207E-16 ) ) ;
#84 = CC_DESIGN_DATE_AND_TIME_ASSIGNMENT ( #41, #65, ( #10 ) ) ;
#85 = CIRCLE ( 'NONE', #120, 50.00000000000000000 ) ;
#86 = VERTEX_POINT ( 'NONE', #169 ) ;
#87 = CALENDAR_DATE ( 2021, 7, 12 ) ;
#88 = APPROVAL_STATUS ( 'not_yet_approved' ) ;
#89 = DIRECTION ( 'NONE',  ( -3.491481338843133355E-15, 1.224646799147353207E-16, -1.000000000000000000 ) ) ;
#90 = LOCAL_TIME ( 10, 13, 30.00000000000000000, #155 ) ;
#91 = PERSON_AND_ORGANIZATION_ROLE ( 'creator' ) ;
#92 = CYLINDRICAL_SURFACE ( 'NONE', #64, 50.00000000000000000 ) ;
#93 = EDGE_LOOP ( 'NONE', ( #20 ) ) ;
#94 = CARTESIAN_POINT ( 'NONE',  ( 0.0000000000000000000, 0.0000000000000000000, 0.0000000000000000000 ) ) ;
#95 = FACE_OUTER_BOUND ( 'NONE', #3, .T. ) ;
#96 = FACE_OUTER_BOUND ( 'NONE', #93, .T. ) ;
#97 = AXIS2_PLACEMENT_3D ( 'NONE', #69, #71, #115 ) ;
#98 = AXIS2_PLACEMENT_3D ( 'NONE', #36, #11, #75 ) ;
#99 = ADVANCED_FACE ( 'NONE', ( #95, #147 ), #63, .T. ) ;
#100 = APPROVAL_ROLE ( '' ) ;
#101 = PERSON_AND_ORGANIZATION_ROLE ( 'classification_officer' ) ;
#102 = CALENDAR_DATE ( 2021, 7, 12 ) ;
#103 = APPROVAL_DATE_TIME ( #158, #54 ) ;
#104 = ORIENTED_EDGE ( 'NONE', *, *, #46, .T. ) ;
#105 = PERSON ( 'UNSPECIFIED', 'UNSPECIFIED', 'UNSPECIFIED', ('UNSPECIFIED'), ('UNSPECIFIED'), ('UNSPECIFIED') ) ;
#106 = FACE_OUTER_BOUND ( 'NONE', #40, .T. ) ;
#107 = PERSON_AND_ORGANIZATION ( #105, #126 ) ;
#108 = APPLICATION_PROTOCOL_DEFINITION ( 'international standard', 'config_control_design', 1994, #70 ) ;
#109 = CALENDAR_DATE ( 2021, 7, 12 ) ;
#110 = APPROVAL_ROLE ( '' ) ;
#111 = PERSON_AND_ORGANIZATION ( #105, #126 ) ;
#112 = CALENDAR_DATE ( 2021, 7, 12 ) ;
#113 = DIRECTION ( 'NONE',  ( -3.491481338843133355E-15, 1.224646799147353207E-16, -1.000000000000000000 ) ) ;
#114 = ORIENTED_EDGE ( 'NONE', *, *, #46, .F. ) ;
#115 = DIRECTION ( 'NONE',  ( 4.275831445896957731E-31, 1.000000000000000000, 1.224646799147353207E-16 ) ) ;
#116 = LOCAL_TIME ( 10, 13, 30.00000000000000000, #61 ) ;
#117 = DESIGN_CONTEXT ( 'detailed design', #70, 'design' ) ;
#118 = FACE_OUTER_BOUND ( 'NONE', #45, .T. ) ;
#119 = FACE_OUTER_BOUND ( 'NONE', #160, .T. ) ;
#120 = AXIS2_PLACEMENT_3D ( 'NONE', #43, #44, #60 ) ;
#121 = CC_DESIGN_PERSON_AND_ORGANIZATION_ASSIGNMENT ( #12, #137, ( #1 ) ) ;
#122 = PERSON_AND_ORGANIZATION ( #105, #126 ) ;
#123 = AXIS2_PLACEMENT_3D ( 'NONE', #157, #4, #132 ) ;
#124 = DIRECTION ( 'NONE',  ( 4.202028969572151271E-31, 1.000000000000000000, 1.182766006347823109E-16 ) ) ;
#125 =( NAMED_UNIT ( * ) SI_UNIT ( $, .STERADIAN. ) SOLID_ANGLE_UNIT ( ) );
#126 = ORGANIZATION ( 'UNSPECIFIED', 'UNSPECIFIED', '' ) ;
#127 = CALENDAR_DATE ( 2021, 7, 12 ) ;
#128 = PERSON_AND_ORGANIZATION_ROLE ( 'design_supplier' ) ;
#129 = CC_DESIGN_PERSON_AND_ORGANIZATION_ASSIGNMENT ( #79, #91, ( #55 ) ) ;
#130 = CYLINDRICAL_SURFACE ( 'NONE', #97, 11.00000000000000000 ) ;
#131 = DATE_AND_TIME ( #102, #9 ) ;
#132 = DIRECTION ( 'NONE',  ( -4.275831445896958607E-31, -1.000000000000000000, -1.224646799147353207E-16 ) ) ;
#133 = APPROVAL_STATUS ( 'not_yet_approved' ) ;
#134 =( NAMED_UNIT ( * ) PLANE_ANGLE_UNIT ( ) SI_UNIT ( $, .RADIAN. ) );
#135 = CC_DESIGN_PERSON_AND_ORGANIZATION_ASSIGNMENT ( #154, #101, ( #10 ) ) ;
#136 = CC_DESIGN_APPROVAL ( #51, ( #55 ) ) ;
#137 = PERSON_AND_ORGANIZATION_ROLE ( 'creator' ) ;
#138 = VERTEX_POINT ( 'NONE', #149 ) ;
#139 = DIRECTION ( 'NONE',  ( 4.275831445896958607E-31, 1.000000000000000000, 1.224646799147353207E-16 ) ) ;
#140 = PRODUCT_RELATED_PRODUCT_CATEGORY ( 'detail', '', ( #21 ) ) ;
#141 = EDGE_CURVE ( 'NONE', #138, #138, #5, .T. ) ;
#142 = APPROVAL_ROLE ( '' ) ;
#143 = AXIS2_PLACEMENT_3D ( 'NONE', #26, #15, #124 ) ;
#144 = APPLICATION_CONTEXT ( 'configuration controlled 3d designs of mechanical parts and assemblies' ) ;
#145 = EDGE_CURVE ( 'NONE', #150, #150, #14, .T. ) ;
#146 = ORIENTED_EDGE ( 'NONE', *, *, #145, .T. ) ;
#147 = FACE_BOUND ( 'NONE', #56, .T. ) ;
#148 = PERSON_AND_ORGANIZATION_ROLE ( 'design_owner' ) ;
#149 = CARTESIAN_POINT ( 'NONE',  ( 2.793185071074494457E-15, 11.00000000000000000, 0.7999999999999964917 ) ) ;
#150 = VERTEX_POINT ( 'NONE', #24 ) ;
#151 = DATE_TIME_ROLE ( 'creation_date' ) ;
#152 = CARTESIAN_POINT ( 'NONE',  ( 2.793185071074490118E-15, 50.00000000000000000, 0.7999999999999951594 ) ) ;
#153 = APPROVAL_STATUS ( 'not_yet_approved' ) ;
#154 = PERSON_AND_ORGANIZATION ( #105, #126 ) ;
#155 = COORDINATED_UNIVERSAL_TIME_OFFSET ( 1, 0, .AHEAD. ) ;
#156 = CC_DESIGN_PERSON_AND_ORGANIZATION_ASSIGNMENT ( #17, #128, ( #55 ) ) ;
#157 = CARTESIAN_POINT ( 'NONE',  ( 2.793185071074500373E-15, 50.00000000000000000, 0.7999999999999981570 ) ) ;
#158 = DATE_AND_TIME ( #127, #58 ) ;
#159 = AXIS2_PLACEMENT_3D ( 'NONE', #31, #67, #83 ) ;
#160 = EDGE_LOOP ( 'NONE', ( #104 ) ) ;
#161 = ORIENTED_EDGE ( 'NONE', *, *, #141, .T. ) ;
#162 = APPROVAL ( #133, 'UNSPECIFIED' ) ;
#163 = MECHANICAL_CONTEXT ( 'NONE', #144, 'mechanical' ) ;
#164 =( GEOMETRIC_REPRESENTATION_CONTEXT ( 3 ) GLOBAL_UNCERTAINTY_ASSIGNED_CONTEXT ( ( #22 ) ) GLOBAL_UNIT_ASSIGNED_CONTEXT ( ( #76, #134, #125 ) ) REPRESENTATION_CONTEXT ( 'NONE', 'WORKASPACE' ) );
#165 = APPROVAL_DATE_TIME ( #52, #162 ) ;
#166 = CARTESIAN_POINT ( 'NONE',  ( 8.337871319499070772E-30, 50.00000000000000000, 2.388061258337339333E-15 ) ) ;
#167 = DATE_AND_TIME ( #109, #168 ) ;
#168 = LOCAL_TIME ( 10, 13, 30.00000000000000000, #49 ) ;
#169 = CARTESIAN_POINT ( 'NONE',  ( 0.0000000000000000000, 11.00000000000000000, 0.0000000000000000000 ) ) ;
ENDSEC;
END-ISO-10303-21;
