ISO-10303-21;
HEADER;
FILE_DESCRIPTION (( 'STEP AP203' ),
    '1' );
FILE_NAME ('977526.step',
    '2021-12-07T09:13:30',
    ( '' ),
    ( '' ),
    'SwSTEP 2.0',
    'SolidWorks 2019',
    '' );
FILE_SCHEMA (( 'CONFIG_CONTROL_DESIGN' ));
ENDSEC;

DATA;
#1 = FACE_OUTER_BOUND ( 'NONE', #104, .T. ) ;
#2 = PRODUCT ( '977526', '977526', '', ( #115 ) ) ;
#3 = PERSON_AND_ORGANIZATION ( #102, #114 ) ;
#4 = EDGE_LOOP ( 'NONE', ( #119 ) ) ;
#5 = DIRECTION ( 'NONE',  ( 3.491481338843133355E-15, -1.224646799147353207E-16, 1.000000000000000000 ) ) ;
#6 = CC_DESIGN_PERSON_AND_ORGANIZATION_ASSIGNMENT ( #3, #26, ( #163 ) ) ;
#7 = APPROVAL_STATUS ( 'not_yet_approved' ) ;
#8 = DIRECTION ( 'NONE',  ( 4.275831445896957731E-31, 1.000000000000000000, 1.224646799147353207E-16 ) ) ;
#9 = DIRECTION ( 'NONE',  ( 4.202028969572151271E-31, 1.000000000000000000, 1.182766006347823109E-16 ) ) ;
#10 = LOCAL_TIME ( 10, 13, 30.00000000000000000, #75 ) ;
#11 = DATE_AND_TIME ( #154, #101 ) ;
#12 = ADVANCED_FACE ( 'NONE', ( #1, #13 ), #92, .F. ) ;
#13 = FACE_OUTER_BOUND ( 'NONE', #95, .T. ) ;
#14 = DIRECTION ( 'NONE',  ( 4.275831445896957731E-31, 1.000000000000000000, 1.224646799147353207E-16 ) ) ;
#15 = CC_DESIGN_APPROVAL ( #35, ( #67 ) ) ;
#16 = CARTESIAN_POINT ( 'NONE',  ( 0.0000000000000000000, 0.0000000000000000000, 0.0000000000000000000 ) ) ;
#17 = ADVANCED_BREP_SHAPE_REPRESENTATION ( '977526', ( #141, #155 ), #72 ) ;
#18 = DIRECTION ( 'NONE',  ( -3.491481338843133355E-15, 1.224646799147353207E-16, -1.000000000000000000 ) ) ;
#19 = DIRECTION ( 'NONE',  ( -3.491481338843133355E-15, 1.224646799147353207E-16, -1.000000000000000000 ) ) ;
#20 = DIRECTION ( 'NONE',  ( 4.275831445896958607E-31, 1.000000000000000000, 1.224646799147353207E-16 ) ) ;
#21 = DATE_AND_TIME ( #71, #22 ) ;
#22 = LOCAL_TIME ( 10, 13, 30.00000000000000000, #168 ) ;
#23 = APPROVAL ( #54, 'UNSPECIFIED' ) ;
#24 = CARTESIAN_POINT ( 'NONE',  ( 3.491481338843124283E-15, 40.00000000000000000, 0.9999999999999974465 ) ) ;
#25 = AXIS2_PLACEMENT_3D ( 'NONE', #107, #143, #121 ) ;
#26 = PERSON_AND_ORGANIZATION_ROLE ( 'creator' ) ;
#27 = DIRECTION ( 'NONE',  ( -3.491481338843133355E-15, 1.224646799147353207E-16, -1.000000000000000000 ) ) ;
#28 = DATE_AND_TIME ( #130, #10 ) ;
#29 = AXIS2_PLACEMENT_3D ( 'NONE', #74, #27, #14 ) ;
#30 = ORIENTED_EDGE ( 'NONE', *, *, #145, .T. ) ;
#31 = ADVANCED_FACE ( 'NONE', ( #49, #131 ), #133, .T. ) ;
#32 = APPLICATION_PROTOCOL_DEFINITION ( 'international standard', 'config_control_design', 1994, #105 ) ;
#33 = PERSON_AND_ORGANIZATION_ROLE ( 'design_owner' ) ;
#34 = APPROVAL_STATUS ( 'not_yet_approved' ) ;
#35 = APPROVAL ( #7, 'UNSPECIFIED' ) ;
#36 = CC_DESIGN_SECURITY_CLASSIFICATION ( #126, ( #163 ) ) ;
#37 = APPROVAL_ROLE ( '' ) ;
#38 = ORIENTED_EDGE ( 'NONE', *, *, #113, .T. ) ;
#39 = PERSON_AND_ORGANIZATION ( #102, #114 ) ;
#40 = DATE_AND_TIME ( #146, #134 ) ;
#41 = CIRCLE ( 'NONE', #110, 11.00000000000000000 ) ;
#42 = PRODUCT_RELATED_PRODUCT_CATEGORY ( 'detail', '', ( #2 ) ) ;
#43 =( NAMED_UNIT ( * ) SI_UNIT ( $, .STERADIAN. ) SOLID_ANGLE_UNIT ( ) );
#44 = DIRECTION ( 'NONE',  ( 0.0000000000000000000, 0.0000000000000000000, 1.000000000000000000 ) ) ;
#45 = FACE_BOUND ( 'NONE', #148, .T. ) ;
#46 = PERSON_AND_ORGANIZATION_ROLE ( 'creator' ) ;
#47 = APPROVAL_PERSON_ORGANIZATION ( #144, #23, #97 ) ;
#48 = AXIS2_PLACEMENT_3D ( 'NONE', #161, #135, #128 ) ;
#49 = FACE_OUTER_BOUND ( 'NONE', #4, .T. ) ;
#50 = DATE_AND_TIME ( #158, #87 ) ;
#51 = ORIENTED_EDGE ( 'NONE', *, *, #113, .F. ) ;
#52 = DIRECTION ( 'NONE',  ( 4.275831445896958607E-31, 1.000000000000000000, 1.224646799147353207E-16 ) ) ;
#53 = DIRECTION ( 'NONE',  ( -4.275831445896958607E-31, -1.000000000000000000, -1.224646799147353207E-16 ) ) ;
#54 = APPROVAL_STATUS ( 'not_yet_approved' ) ;
#55 = APPROVAL_PERSON_ORGANIZATION ( #60, #139, #37 ) ;
#56 = DIRECTION ( 'NONE',  ( -3.491481338843133355E-15, 1.224646799147353207E-16, -1.000000000000000000 ) ) ;
#57 = VERTEX_POINT ( 'NONE', #68 ) ;
#58 = PERSON_AND_ORGANIZATION ( #102, #114 ) ;
#59 = AXIS2_PLACEMENT_3D ( 'NONE', #69, #18, #9 ) ;
#60 = PERSON_AND_ORGANIZATION ( #102, #114 ) ;
#61 = APPROVAL_PERSON_ORGANIZATION ( #58, #35, #109 ) ;
#62 = ORIENTED_EDGE ( 'NONE', *, *, #140, .F. ) ;
#63 = PERSON_AND_ORGANIZATION_ROLE ( 'design_supplier' ) ;
#64 = CLOSED_SHELL ( 'NONE', ( #132, #12, #81, #31 ) ) ;
#65 = DESIGN_CONTEXT ( 'detailed design', #73, 'design' ) ;
#66 = FACE_OUTER_BOUND ( 'NONE', #78, .T. ) ;
#67 = PRODUCT_DEFINITION ( 'UNKNOWN', '', #163, #65 ) ;
#68 = CARTESIAN_POINT ( 'NONE',  ( 0.0000000000000000000, 40.00000000000000000, 0.0000000000000000000 ) ) ;
#69 = CARTESIAN_POINT ( 'NONE',  ( 3.491481338843116395E-15, -1.224646799147347291E-16, 0.9999999999999952260 ) ) ;
#70 = CARTESIAN_POINT ( 'NONE',  ( 0.0000000000000000000, 11.00000000000000000, 0.0000000000000000000 ) ) ;
#71 = CALENDAR_DATE ( 2021, 7, 12 ) ;
#72 =( GEOMETRIC_REPRESENTATION_CONTEXT ( 3 ) GLOBAL_UNCERTAINTY_ASSIGNED_CONTEXT ( ( #122 ) ) GLOBAL_UNIT_ASSIGNED_CONTEXT ( ( #165, #85, #43 ) ) REPRESENTATION_CONTEXT ( 'NONE', 'WORKASPACE' ) );
#73 = APPLICATION_CONTEXT ( 'configuration controlled 3d designs of mechanical parts and assemblies' ) ;
#74 = CARTESIAN_POINT ( 'NONE',  ( 0.0000000000000000000, 0.0000000000000000000, 0.0000000000000000000 ) ) ;
#75 = COORDINATED_UNIVERSAL_TIME_OFFSET ( 1, 0, .AHEAD. ) ;
#76 = CC_DESIGN_PERSON_AND_ORGANIZATION_ASSIGNMENT ( #138, #33, ( #2 ) ) ;
#77 = EDGE_LOOP ( 'NONE', ( #38 ) ) ;
#78 = EDGE_LOOP ( 'NONE', ( #147 ) ) ;
#79 = CC_DESIGN_APPROVAL ( #139, ( #163 ) ) ;
#80 = DATE_TIME_ROLE ( 'classification_date' ) ;
#81 = ADVANCED_FACE ( 'NONE', ( #142, #66 ), #125, .T. ) ;
#82 = VERTEX_POINT ( 'NONE', #136 ) ;
#83 = CC_DESIGN_PERSON_AND_ORGANIZATION_ASSIGNMENT ( #39, #63, ( #163 ) ) ;
#84 = APPLICATION_PROTOCOL_DEFINITION ( 'international standard', 'config_control_design', 1994, #73 ) ;
#85 =( NAMED_UNIT ( * ) PLANE_ANGLE_UNIT ( ) SI_UNIT ( $, .RADIAN. ) );
#86 = APPROVAL_DATE_TIME ( #11, #35 ) ;
#87 = LOCAL_TIME ( 10, 13, 30.00000000000000000, #162 ) ;
#88 = AXIS2_PLACEMENT_3D ( 'NONE', #16, #103, #52 ) ;
#89 = AXIS2_PLACEMENT_3D ( 'NONE', #24, #5, #53 ) ;
#90 = EDGE_LOOP ( 'NONE', ( #30 ) ) ;
#91 = SECURITY_CLASSIFICATION_LEVEL ( 'unclassified' ) ;
#92 = CYLINDRICAL_SURFACE ( 'NONE', #29, 11.00000000000000000 ) ;
#93 = PRODUCT_DEFINITION_SHAPE ( 'NONE', 'NONE',  #67 ) ;
#94 = PERSON_AND_ORGANIZATION_ROLE ( 'classification_officer' ) ;
#95 = EDGE_LOOP ( 'NONE', ( #123 ) ) ;
#96 = CC_DESIGN_PERSON_AND_ORGANIZATION_ASSIGNMENT ( #100, #46, ( #67 ) ) ;
#97 = APPROVAL_ROLE ( '' ) ;
#98 = CIRCLE ( 'NONE', #48, 40.00000000000000000 ) ;
#99 = VERTEX_POINT ( 'NONE', #70 ) ;
#100 = PERSON_AND_ORGANIZATION ( #102, #114 ) ;
#101 = LOCAL_TIME ( 10, 13, 30.00000000000000000, #116 ) ;
#102 = PERSON ( 'UNSPECIFIED', 'UNSPECIFIED', 'UNSPECIFIED', ('UNSPECIFIED'), ('UNSPECIFIED'), ('UNSPECIFIED') ) ;
#103 = DIRECTION ( 'NONE',  ( -3.491481338843133355E-15, 1.224646799147353207E-16, -1.000000000000000000 ) ) ;
#104 = EDGE_LOOP ( 'NONE', ( #157 ) ) ;
#105 = APPLICATION_CONTEXT ( 'configuration controlled 3d designs of mechanical parts and assemblies' ) ;
#106 = APPROVAL_DATE_TIME ( #40, #139 ) ;
#107 = CARTESIAN_POINT ( 'NONE',  ( -1.710332578358783302E-29, 5.999039130647430431E-31, -4.898587196589413026E-15 ) ) ;
#108 = PERSON_AND_ORGANIZATION ( #102, #114 ) ;
#109 = APPROVAL_ROLE ( '' ) ;
#110 = AXIS2_PLACEMENT_3D ( 'NONE', #152, #56, #8 ) ;
#111 = CARTESIAN_POINT ( 'NONE',  ( 3.491481338843121128E-15, 11.00000000000000000, 0.9999999999999965583 ) ) ;
#112 = VERTEX_POINT ( 'NONE', #111 ) ;
#113 = EDGE_CURVE ( 'NONE', #57, #57, #118, .T. ) ;
#114 = ORGANIZATION ( 'UNSPECIFIED', 'UNSPECIFIED', '' ) ;
#115 = MECHANICAL_CONTEXT ( 'NONE', #105, 'mechanical' ) ;
#116 = COORDINATED_UNIVERSAL_TIME_OFFSET ( 1, 0, .AHEAD. ) ;
#117 = CC_DESIGN_DATE_AND_TIME_ASSIGNMENT ( #21, #129, ( #67 ) ) ;
#118 = CIRCLE ( 'NONE', #25, 40.00000000000000000 ) ;
#119 = ORIENTED_EDGE ( 'NONE', *, *, #127, .T. ) ;
#120 = CIRCLE ( 'NONE', #59, 11.00000000000000000 ) ;
#121 = DIRECTION ( 'NONE',  ( 4.275831445896958607E-31, 1.000000000000000000, 1.224646799147353207E-16 ) ) ;
#122 = UNCERTAINTY_MEASURE_WITH_UNIT (LENGTH_MEASURE( 1.000000000000000082E-05 ), #165, 'distance_accuracy_value', 'NONE');
#123 = ORIENTED_EDGE ( 'NONE', *, *, #145, .F. ) ;
#124 = APPROVAL_DATE_TIME ( #28, #23 ) ;
#125 = PLANE ( 'NONE',  #89 ) ;
#126 = SECURITY_CLASSIFICATION ( '', '', #91 ) ;
#127 = EDGE_CURVE ( 'NONE', #82, #82, #98, .T. ) ;
#128 = DIRECTION ( 'NONE',  ( 4.237045877651918877E-31, 1.000000000000000000, 1.246832498358330099E-16 ) ) ;
#129 = DATE_TIME_ROLE ( 'creation_date' ) ;
#130 = CALENDAR_DATE ( 2021, 7, 12 ) ;
#131 = FACE_OUTER_BOUND ( 'NONE', #159, .T. ) ;
#132 = ADVANCED_FACE ( 'NONE', ( #164, #45 ), #137, .T. ) ;
#133 = CYLINDRICAL_SURFACE ( 'NONE', #88, 40.00000000000000000 ) ;
#134 = LOCAL_TIME ( 10, 13, 30.00000000000000000, #160 ) ;
#135 = DIRECTION ( 'NONE',  ( -3.491481338843133355E-15, 1.224646799147353207E-16, -1.000000000000000000 ) ) ;
#136 = CARTESIAN_POINT ( 'NONE',  ( 3.491481338843115606E-15, 40.00000000000000000, 0.9999999999999950040 ) ) ;
#137 = PLANE ( 'NONE',  #150 ) ;
#138 = PERSON_AND_ORGANIZATION ( #102, #114 ) ;
#139 = APPROVAL ( #34, 'UNSPECIFIED' ) ;
#140 = EDGE_CURVE ( 'NONE', #99, #99, #41, .T. ) ;
#141 = MANIFOLD_SOLID_BREP ( 'Corps-Déplacer/Copier1', #64 ) ;
#142 = FACE_BOUND ( 'NONE', #90, .T. ) ;
#143 = DIRECTION ( 'NONE',  ( -3.491481338843133355E-15, 1.224646799147353207E-16, -1.000000000000000000 ) ) ;
#144 = PERSON_AND_ORGANIZATION ( #102, #114 ) ;
#145 = EDGE_CURVE ( 'NONE', #112, #112, #120, .T. ) ;
#146 = CALENDAR_DATE ( 2021, 7, 12 ) ;
#147 = ORIENTED_EDGE ( 'NONE', *, *, #127, .F. ) ;
#148 = EDGE_LOOP ( 'NONE', ( #62 ) ) ;
#149 = SHAPE_DEFINITION_REPRESENTATION ( #93, #17 ) ;
#150 = AXIS2_PLACEMENT_3D ( 'NONE', #153, #19, #20 ) ;
#151 = DIRECTION ( 'NONE',  ( 1.000000000000000000, 0.0000000000000000000, 0.0000000000000000000 ) ) ;
#152 = CARTESIAN_POINT ( 'NONE',  ( -4.703414590486653942E-30, 1.649735760928043369E-31, -1.347111479062088405E-15 ) ) ;
#153 = CARTESIAN_POINT ( 'NONE',  ( 6.199955596550589542E-30, 40.00000000000000000, 1.775737858763662015E-15 ) ) ;
#154 = CALENDAR_DATE ( 2021, 7, 12 ) ;
#155 = AXIS2_PLACEMENT_3D ( 'NONE', #166, #44, #151 ) ;
#156 = CC_DESIGN_DATE_AND_TIME_ASSIGNMENT ( #50, #80, ( #126 ) ) ;
#157 = ORIENTED_EDGE ( 'NONE', *, *, #140, .T. ) ;
#158 = CALENDAR_DATE ( 2021, 7, 12 ) ;
#159 = EDGE_LOOP ( 'NONE', ( #51 ) ) ;
#160 = COORDINATED_UNIVERSAL_TIME_OFFSET ( 1, 0, .AHEAD. ) ;
#161 = CARTESIAN_POINT ( 'NONE',  ( 3.491481338843098645E-15, -1.224646799147341128E-16, 0.9999999999999900080 ) ) ;
#162 = COORDINATED_UNIVERSAL_TIME_OFFSET ( 1, 0, .AHEAD. ) ;
#163 = PRODUCT_DEFINITION_FORMATION_WITH_SPECIFIED_SOURCE ( 'ANY', '', #2, .NOT_KNOWN. ) ;
#164 = FACE_OUTER_BOUND ( 'NONE', #77, .T. ) ;
#165 =( LENGTH_UNIT ( ) NAMED_UNIT ( * ) SI_UNIT ( .MILLI., .METRE. ) );
#166 = CARTESIAN_POINT ( 'NONE',  ( 0.0000000000000000000, 0.0000000000000000000, 0.0000000000000000000 ) ) ;
#167 = CC_DESIGN_APPROVAL ( #23, ( #126 ) ) ;
#168 = COORDINATED_UNIVERSAL_TIME_OFFSET ( 1, 0, .AHEAD. ) ;
#169 = CC_DESIGN_PERSON_AND_ORGANIZATION_ASSIGNMENT ( #108, #94, ( #126 ) ) ;
ENDSEC;
END-ISO-10303-21;
