ISO-10303-21;
HEADER;
FILE_DESCRIPTION (( 'STEP AP203' ),
    '1' );
FILE_NAME ('977525.step',
    '2021-12-07T09:13:29',
    ( '' ),
    ( '' ),
    'SwSTEP 2.0',
    'SolidWorks 2019',
    '' );
FILE_SCHEMA (( 'CONFIG_CONTROL_DESIGN' ));
ENDSEC;

DATA;
#1 = CALENDAR_DATE ( 2021, 7, 12 ) ;
#2 = FACE_OUTER_BOUND ( 'NONE', #123, .T. ) ;
#3 = DIRECTION ( 'NONE',  ( -3.491481338843133355E-15, 1.530808498934191078E-16, -1.000000000000000000 ) ) ;
#4 = DIRECTION ( 'NONE',  ( 1.000000000000000000, 0.0000000000000000000, 0.0000000000000000000 ) ) ;
#5 = APPROVAL ( #77, 'UNSPECIFIED' ) ;
#6 = CALENDAR_DATE ( 2021, 7, 12 ) ;
#7 = CC_DESIGN_PERSON_AND_ORGANIZATION_ASSIGNMENT ( #164, #120, ( #72 ) ) ;
#8 = CALENDAR_DATE ( 2021, 7, 12 ) ;
#9 = EDGE_CURVE ( 'NONE', #97, #97, #90, .T. ) ;
#10 = CLOSED_SHELL ( 'NONE', ( #104, #146, #137, #143 ) ) ;
#11 = APPROVAL_PERSON_ORGANIZATION ( #133, #5, #79 ) ;
#12 = PRODUCT_DEFINITION_SHAPE ( 'NONE', 'NONE',  #130 ) ;
#13 = FACE_OUTER_BOUND ( 'NONE', #84, .T. ) ;
#14 = AXIS2_PLACEMENT_3D ( 'NONE', #111, #49, #152 ) ;
#15 = EDGE_LOOP ( 'NONE', ( #48 ) ) ;
#16 = CARTESIAN_POINT ( 'NONE',  ( 2.793185071074485779E-15, -1.224646799147343839E-16, 0.7999999999999940492 ) ) ;
#17 = PERSON_AND_ORGANIZATION_ROLE ( 'creator' ) ;
#18 = APPROVAL_PERSON_ORGANIZATION ( #88, #31, #63 ) ;
#19 = CARTESIAN_POINT ( 'NONE',  ( 0.0000000000000000000, 40.00000000000000000, 0.0000000000000000000 ) ) ;
#20 = MECHANICAL_CONTEXT ( 'NONE', #110, 'mechanical' ) ;
#21 = ORIENTED_EDGE ( 'NONE', *, *, #127, .T. ) ;
#22 = DIRECTION ( 'NONE',  ( -3.491481338843133355E-15, 1.530808498934191078E-16, -1.000000000000000000 ) ) ;
#23 = ORIENTED_EDGE ( 'NONE', *, *, #45, .T. ) ;
#24 = EDGE_CURVE ( 'NONE', #39, #39, #46, .T. ) ;
#25 = ORIENTED_EDGE ( 'NONE', *, *, #127, .F. ) ;
#26 = MANIFOLD_SOLID_BREP ( 'Corps-Déplacer/Copier1', #10 ) ;
#27 = APPROVAL_DATE_TIME ( #40, #31 ) ;
#28 =( NAMED_UNIT ( * ) PLANE_ANGLE_UNIT ( ) SI_UNIT ( $, .RADIAN. ) );
#29 = DIRECTION ( 'NONE',  ( 3.491481338843133355E-15, -1.530808498934191078E-16, 1.000000000000000000 ) ) ;
#30 = APPROVAL_STATUS ( 'not_yet_approved' ) ;
#31 = APPROVAL ( #30, 'UNSPECIFIED' ) ;
#32 = CIRCLE ( 'NONE', #156, 39.99999999999998579 ) ;
#33 = CC_DESIGN_APPROVAL ( #81, ( #134 ) ) ;
#34 = PRODUCT ( '977525', '977525', '', ( #20 ) ) ;
#35 = DIRECTION ( 'NONE',  ( 5.344789307371196944E-31, 1.000000000000000000, 1.530808498934191078E-16 ) ) ;
#36 = CC_DESIGN_APPROVAL ( #5, ( #72 ) ) ;
#37 = CARTESIAN_POINT ( 'NONE',  ( 7.749944495688235526E-30, 40.00000000000000000, 2.219672323454576927E-15 ) ) ;
#38 = VERTEX_POINT ( 'NONE', #51 ) ;
#39 = VERTEX_POINT ( 'NONE', #19 ) ;
#40 = DATE_AND_TIME ( #6, #162 ) ;
#41 = COORDINATED_UNIVERSAL_TIME_OFFSET ( 1, 0, .AHEAD. ) ;
#42 = COORDINATED_UNIVERSAL_TIME_OFFSET ( 1, 0, .AHEAD. ) ;
#43 = ADVANCED_BREP_SHAPE_REPRESENTATION ( '977525', ( #26, #56 ), #47 ) ;
#44 = EDGE_LOOP ( 'NONE', ( #25 ) ) ;
#45 = EDGE_CURVE ( 'NONE', #38, #38, #32, .T. ) ;
#46 = CIRCLE ( 'NONE', #135, 40.00000000000000000 ) ;
#47 =( GEOMETRIC_REPRESENTATION_CONTEXT ( 3 ) GLOBAL_UNCERTAINTY_ASSIGNED_CONTEXT ( ( #165 ) ) GLOBAL_UNIT_ASSIGNED_CONTEXT ( ( #101, #28, #145 ) ) REPRESENTATION_CONTEXT ( 'NONE', 'WORKASPACE' ) );
#48 = ORIENTED_EDGE ( 'NONE', *, *, #24, .T. ) ;
#49 = DIRECTION ( 'NONE',  ( -3.491481338843133355E-15, 1.530808498934191078E-16, -1.000000000000000000 ) ) ;
#50 = DATE_AND_TIME ( #1, #69 ) ;
#51 = CARTESIAN_POINT ( 'NONE',  ( 2.793185071074507473E-15, 39.99999999999998579, 0.8000000000000001554 ) ) ;
#52 = CYLINDRICAL_SURFACE ( 'NONE', #95, 11.00000000000000000 ) ;
#53 = AXIS2_PLACEMENT_3D ( 'NONE', #155, #129, #132 ) ;
#54 = CARTESIAN_POINT ( 'NONE',  ( 6.842277657836020854E-46, 11.00000000000000000, 0.0000000000000000000 ) ) ;
#55 = PRODUCT_RELATED_PRODUCT_CATEGORY ( 'detail', '', ( #34 ) ) ;
#56 = AXIS2_PLACEMENT_3D ( 'NONE', #87, #116, #4 ) ;
#57 = PLANE ( 'NONE',  #103 ) ;
#58 = CIRCLE ( 'NONE', #83, 11.00000000000000000 ) ;
#59 = DIRECTION ( 'NONE',  ( -3.491481338843133355E-15, 1.530808498934191078E-16, -1.000000000000000000 ) ) ;
#60 = COORDINATED_UNIVERSAL_TIME_OFFSET ( 1, 0, .AHEAD. ) ;
#61 = APPROVAL_STATUS ( 'not_yet_approved' ) ;
#62 = CARTESIAN_POINT ( 'NONE',  ( 0.0000000000000000000, 0.0000000000000000000, 0.0000000000000000000 ) ) ;
#63 = APPROVAL_ROLE ( '' ) ;
#64 = CC_DESIGN_APPROVAL ( #31, ( #130 ) ) ;
#65 = DATE_AND_TIME ( #78, #115 ) ;
#66 = CALENDAR_DATE ( 2021, 7, 12 ) ;
#67 = DATE_AND_TIME ( #8, #167 ) ;
#68 = CC_DESIGN_PERSON_AND_ORGANIZATION_ASSIGNMENT ( #102, #105, ( #134 ) ) ;
#69 = LOCAL_TIME ( 10, 13, 29.00000000000000000, #60 ) ;
#70 = DIRECTION ( 'NONE',  ( 5.252536211965189088E-31, 1.000000000000000000, 1.577021341797097314E-16 ) ) ;
#71 = EDGE_LOOP ( 'NONE', ( #124 ) ) ;
#72 = SECURITY_CLASSIFICATION ( '', '', #89 ) ;
#73 = FACE_OUTER_BOUND ( 'NONE', #44, .T. ) ;
#74 = PERSON_AND_ORGANIZATION ( #107, #140 ) ;
#75 = CC_DESIGN_PERSON_AND_ORGANIZATION_ASSIGNMENT ( #131, #99, ( #34 ) ) ;
#76 = FACE_OUTER_BOUND ( 'NONE', #138, .T. ) ;
#77 = APPROVAL_STATUS ( 'not_yet_approved' ) ;
#78 = CALENDAR_DATE ( 2021, 7, 12 ) ;
#79 = APPROVAL_ROLE ( '' ) ;
#80 = APPROVAL_ROLE ( '' ) ;
#81 = APPROVAL ( #61, 'UNSPECIFIED' ) ;
#82 = DIRECTION ( 'NONE',  ( 5.344789307371196944E-31, 1.000000000000000000, 1.530808498934191078E-16 ) ) ;
#83 = AXIS2_PLACEMENT_3D ( 'NONE', #136, #22, #70 ) ;
#84 = EDGE_LOOP ( 'NONE', ( #93 ) ) ;
#85 = CC_DESIGN_SECURITY_CLASSIFICATION ( #72, ( #134 ) ) ;
#86 = DIRECTION ( 'NONE',  ( -3.491481338843133355E-15, 1.530808498934191078E-16, -1.000000000000000000 ) ) ;
#87 = CARTESIAN_POINT ( 'NONE',  ( 0.0000000000000000000, 0.0000000000000000000, 0.0000000000000000000 ) ) ;
#88 = PERSON_AND_ORGANIZATION ( #107, #140 ) ;
#89 = SECURITY_CLASSIFICATION_LEVEL ( 'unclassified' ) ;
#90 = CIRCLE ( 'NONE', #14, 11.00000000000000000 ) ;
#91 = PERSON_AND_ORGANIZATION_ROLE ( 'design_supplier' ) ;
#92 = ORIENTED_EDGE ( 'NONE', *, *, #9, .F. ) ;
#93 = ORIENTED_EDGE ( 'NONE', *, *, #45, .F. ) ;
#94 = FACE_OUTER_BOUND ( 'NONE', #15, .T. ) ;
#95 = AXIS2_PLACEMENT_3D ( 'NONE', #62, #3, #114 ) ;
#96 = DATE_TIME_ROLE ( 'creation_date' ) ;
#97 = VERTEX_POINT ( 'NONE', #54 ) ;
#98 = VERTEX_POINT ( 'NONE', #141 ) ;
#99 = PERSON_AND_ORGANIZATION_ROLE ( 'design_owner' ) ;
#100 = CC_DESIGN_PERSON_AND_ORGANIZATION_ASSIGNMENT ( #163, #91, ( #134 ) ) ;
#101 =( LENGTH_UNIT ( ) NAMED_UNIT ( * ) SI_UNIT ( .MILLI., .METRE. ) );
#102 = PERSON_AND_ORGANIZATION ( #107, #140 ) ;
#103 = AXIS2_PLACEMENT_3D ( 'NONE', #109, #29, #142 ) ;
#104 = ADVANCED_FACE ( 'NONE', ( #94, #121 ), #153, .T. ) ;
#105 = PERSON_AND_ORGANIZATION_ROLE ( 'creator' ) ;
#106 = SHAPE_DEFINITION_REPRESENTATION ( #12, #43 ) ;
#107 = PERSON ( 'UNSPECIFIED', 'UNSPECIFIED', 'UNSPECIFIED', ('UNSPECIFIED'), ('UNSPECIFIED'), ('UNSPECIFIED') ) ;
#108 = DIRECTION ( 'NONE',  ( -3.491481338843133355E-15, 1.530808498934191078E-16, -1.000000000000000000 ) ) ;
#109 = CARTESIAN_POINT ( 'NONE',  ( 2.793185071074514573E-15, 39.99999999999998579, 0.8000000000000022649 ) ) ;
#110 = APPLICATION_CONTEXT ( 'configuration controlled 3d designs of mechanical parts and assemblies' ) ;
#111 = CARTESIAN_POINT ( 'NONE',  ( -5.879268238108315325E-30, 2.577712126450065861E-31, -1.683889348827610062E-15 ) ) ;
#112 = DIRECTION ( 'NONE',  ( 5.392603844284262140E-31, 1.000000000000000000, 1.517883041479706701E-16 ) ) ;
#113 = CC_DESIGN_DATE_AND_TIME_ASSIGNMENT ( #50, #96, ( #130 ) ) ;
#114 = DIRECTION ( 'NONE',  ( 5.344789307371196069E-31, 1.000000000000000000, 1.530808498934191078E-16 ) ) ;
#115 = LOCAL_TIME ( 10, 13, 29.00000000000000000, #166 ) ;
#116 = DIRECTION ( 'NONE',  ( 0.0000000000000000000, 0.0000000000000000000, 1.000000000000000000 ) ) ;
#117 = APPLICATION_CONTEXT ( 'configuration controlled 3d designs of mechanical parts and assemblies' ) ;
#118 = COORDINATED_UNIVERSAL_TIME_OFFSET ( 1, 0, .AHEAD. ) ;
#119 = DATE_AND_TIME ( #66, #125 ) ;
#120 = PERSON_AND_ORGANIZATION_ROLE ( 'classification_officer' ) ;
#121 = FACE_BOUND ( 'NONE', #169, .T. ) ;
#122 = FACE_BOUND ( 'NONE', #168, .T. ) ;
#123 = EDGE_LOOP ( 'NONE', ( #23 ) ) ;
#124 = ORIENTED_EDGE ( 'NONE', *, *, #24, .F. ) ;
#125 = LOCAL_TIME ( 10, 13, 29.00000000000000000, #41 ) ;
#126 = ORIENTED_EDGE ( 'NONE', *, *, #9, .T. ) ;
#127 = EDGE_CURVE ( 'NONE', #98, #98, #58, .T. ) ;
#128 = PERSON_AND_ORGANIZATION ( #107, #140 ) ;
#129 = DIRECTION ( 'NONE',  ( -3.491481338843133355E-15, 1.530808498934191078E-16, -1.000000000000000000 ) ) ;
#130 = PRODUCT_DEFINITION ( 'UNKNOWN', '', #134, #148 ) ;
#131 = PERSON_AND_ORGANIZATION ( #107, #140 ) ;
#132 = DIRECTION ( 'NONE',  ( 5.344789307371196944E-31, 1.000000000000000000, 1.530808498934191078E-16 ) ) ;
#133 = PERSON_AND_ORGANIZATION ( #107, #140 ) ;
#134 = PRODUCT_DEFINITION_FORMATION_WITH_SPECIFIED_SOURCE ( 'ANY', '', #34, .NOT_KNOWN. ) ;
#135 = AXIS2_PLACEMENT_3D ( 'NONE', #150, #108, #35 ) ;
#136 = CARTESIAN_POINT ( 'NONE',  ( 2.793185071074501162E-15, -1.224646799147350495E-16, 0.7999999999999983791 ) ) ;
#137 = ADVANCED_FACE ( 'NONE', ( #122, #13 ), #57, .T. ) ;
#138 = EDGE_LOOP ( 'NONE', ( #126 ) ) ;
#139 = CC_DESIGN_DATE_AND_TIME_ASSIGNMENT ( #67, #147, ( #72 ) ) ;
#140 = ORGANIZATION ( 'UNSPECIFIED', 'UNSPECIFIED', '' ) ;
#141 = CARTESIAN_POINT ( 'NONE',  ( 2.793185071074507079E-15, 11.00000000000000000, 0.8000000000000001554 ) ) ;
#142 = DIRECTION ( 'NONE',  ( -5.344789307371196944E-31, -1.000000000000000000, -1.530808498934191078E-16 ) ) ;
#143 = ADVANCED_FACE ( 'NONE', ( #2, #154 ), #159, .T. ) ;
#144 = APPLICATION_PROTOCOL_DEFINITION ( 'international standard', 'config_control_design', 1994, #110 ) ;
#145 =( NAMED_UNIT ( * ) SI_UNIT ( $, .STERADIAN. ) SOLID_ANGLE_UNIT ( ) );
#146 = ADVANCED_FACE ( 'NONE', ( #76, #73 ), #52, .F. ) ;
#147 = DATE_TIME_ROLE ( 'classification_date' ) ;
#148 = DESIGN_CONTEXT ( 'detailed design', #117, 'design' ) ;
#149 = APPROVAL_DATE_TIME ( #119, #5 ) ;
#150 = CARTESIAN_POINT ( 'NONE',  ( -2.137915722948478708E-29, 9.373498641636605998E-31, -6.123233995736764507E-15 ) ) ;
#151 = APPROVAL_PERSON_ORGANIZATION ( #128, #81, #80 ) ;
#152 = DIRECTION ( 'NONE',  ( 5.344789307371196069E-31, 1.000000000000000000, 1.530808498934191078E-16 ) ) ;
#153 = PLANE ( 'NONE',  #161 ) ;
#154 = FACE_OUTER_BOUND ( 'NONE', #71, .T. ) ;
#155 = CARTESIAN_POINT ( 'NONE',  ( 0.0000000000000000000, 0.0000000000000000000, 0.0000000000000000000 ) ) ;
#156 = AXIS2_PLACEMENT_3D ( 'NONE', #16, #59, #112 ) ;
#157 = APPLICATION_PROTOCOL_DEFINITION ( 'international standard', 'config_control_design', 1994, #117 ) ;
#158 = CC_DESIGN_PERSON_AND_ORGANIZATION_ASSIGNMENT ( #74, #17, ( #130 ) ) ;
#159 = CYLINDRICAL_SURFACE ( 'NONE', #53, 39.99999999999999289 ) ;
#160 = APPROVAL_DATE_TIME ( #65, #81 ) ;
#161 = AXIS2_PLACEMENT_3D ( 'NONE', #37, #86, #82 ) ;
#162 = LOCAL_TIME ( 10, 13, 29.00000000000000000, #118 ) ;
#163 = PERSON_AND_ORGANIZATION ( #107, #140 ) ;
#164 = PERSON_AND_ORGANIZATION ( #107, #140 ) ;
#165 = UNCERTAINTY_MEASURE_WITH_UNIT (LENGTH_MEASURE( 1.000000000000000082E-05 ), #101, 'distance_accuracy_value', 'NONE');
#166 = COORDINATED_UNIVERSAL_TIME_OFFSET ( 1, 0, .AHEAD. ) ;
#167 = LOCAL_TIME ( 10, 13, 29.00000000000000000, #42 ) ;
#168 = EDGE_LOOP ( 'NONE', ( #21 ) ) ;
#169 = EDGE_LOOP ( 'NONE', ( #92 ) ) ;
ENDSEC;
END-ISO-10303-21;
