ISO-10303-21;
HEADER;
FILE_DESCRIPTION (( 'STEP AP203' ),
    '1' );
FILE_NAME ('977523.step',
    '2021-12-07T09:13:28',
    ( '' ),
    ( '' ),
    'SwSTEP 2.0',
    'SolidWorks 2019',
    '' );
FILE_SCHEMA (( 'CONFIG_CONTROL_DESIGN' ));
ENDSEC;

DATA;
#1 = PERSON_AND_ORGANIZATION_ROLE ( 'design_owner' ) ;
#2 = APPROVAL_STATUS ( 'not_yet_approved' ) ;
#3 = DIRECTION ( 'NONE',  ( -4.275831445896958607E-31, -1.000000000000000000, -1.224646799147353207E-16 ) ) ;
#4 = AXIS2_PLACEMENT_3D ( 'NONE', #80, #8, #3 ) ;
#5 = ADVANCED_FACE ( 'NONE', ( #20, #22 ), #129, .T. ) ;
#6 = DIRECTION ( 'NONE',  ( -3.491481338843133355E-15, 1.224646799147353207E-16, -1.000000000000000000 ) ) ;
#7 = CALENDAR_DATE ( 2021, 7, 12 ) ;
#8 = DIRECTION ( 'NONE',  ( 3.491481338843133355E-15, -1.224646799147353207E-16, 1.000000000000000000 ) ) ;
#9 = EDGE_LOOP ( 'NONE', ( #52 ) ) ;
#10 = PRODUCT_RELATED_PRODUCT_CATEGORY ( 'detail', '', ( #86 ) ) ;
#11 = DIRECTION ( 'NONE',  ( -3.491481338843133355E-15, 1.224646799147353207E-16, -1.000000000000000000 ) ) ;
#12 = APPROVAL_PERSON_ORGANIZATION ( #48, #153, #156 ) ;
#13 = APPLICATION_CONTEXT ( 'configuration controlled 3d designs of mechanical parts and assemblies' ) ;
#14 = DIRECTION ( 'NONE',  ( 4.275831445896958607E-31, 1.000000000000000000, 1.224646799147353207E-16 ) ) ;
#15 = FACE_OUTER_BOUND ( 'NONE', #9, .T. ) ;
#16 = DIRECTION ( 'NONE',  ( -3.491481338843133355E-15, 1.224646799147353207E-16, -1.000000000000000000 ) ) ;
#17 = CYLINDRICAL_SURFACE ( 'NONE', #160, 8.000000000000000000 ) ;
#18 =( NAMED_UNIT ( * ) SI_UNIT ( $, .STERADIAN. ) SOLID_ANGLE_UNIT ( ) );
#19 = CIRCLE ( 'NONE', #94, 8.000000000000000000 ) ;
#20 = FACE_OUTER_BOUND ( 'NONE', #103, .T. ) ;
#21 = PERSON_AND_ORGANIZATION_ROLE ( 'classification_officer' ) ;
#22 = FACE_BOUND ( 'NONE', #143, .T. ) ;
#23 = FACE_OUTER_BOUND ( 'NONE', #30, .T. ) ;
#24 = CC_DESIGN_PERSON_AND_ORGANIZATION_ASSIGNMENT ( #148, #163, ( #47 ) ) ;
#25 = LOCAL_TIME ( 10, 13, 28.00000000000000000, #85 ) ;
#26 = DIRECTION ( 'NONE',  ( -3.491481338843133355E-15, 1.224646799147353207E-16, -1.000000000000000000 ) ) ;
#27 = APPROVAL_DATE_TIME ( #123, #153 ) ;
#28 = CIRCLE ( 'NONE', #91, 8.000000000000000000 ) ;
#29 = DATE_TIME_ROLE ( 'creation_date' ) ;
#30 = EDGE_LOOP ( 'NONE', ( #164 ) ) ;
#31 =( GEOMETRIC_REPRESENTATION_CONTEXT ( 3 ) GLOBAL_UNCERTAINTY_ASSIGNED_CONTEXT ( ( #106 ) ) GLOBAL_UNIT_ASSIGNED_CONTEXT ( ( #45, #40, #18 ) ) REPRESENTATION_CONTEXT ( 'NONE', 'WORKASPACE' ) );
#32 = APPROVAL_DATE_TIME ( #101, #134 ) ;
#33 = FACE_BOUND ( 'NONE', #142, .T. ) ;
#34 = DATE_AND_TIME ( #7, #155 ) ;
#35 = PRODUCT_DEFINITION ( 'UNKNOWN', '', #47, #150 ) ;
#36 = DIRECTION ( 'NONE',  ( -3.491481338843133355E-15, 1.224646799147353207E-16, -1.000000000000000000 ) ) ;
#37 = CARTESIAN_POINT ( 'NONE',  ( 2.793185071074506684E-15, 31.50000000000000000, 0.8000000000000000444 ) ) ;
#38 = VERTEX_POINT ( 'NONE', #69 ) ;
#39 = DIRECTION ( 'NONE',  ( 4.275831445896958607E-31, 1.000000000000000000, 1.224646799147353207E-16 ) ) ;
#40 =( NAMED_UNIT ( * ) PLANE_ANGLE_UNIT ( ) SI_UNIT ( $, .RADIAN. ) );
#41 = PERSON_AND_ORGANIZATION ( #83, #42 ) ;
#42 = ORGANIZATION ( 'UNSPECIFIED', 'UNSPECIFIED', '' ) ;
#43 = DATE_TIME_ROLE ( 'classification_date' ) ;
#44 = CC_DESIGN_DATE_AND_TIME_ASSIGNMENT ( #34, #43, ( #71 ) ) ;
#45 =( LENGTH_UNIT ( ) NAMED_UNIT ( * ) SI_UNIT ( .MILLI., .METRE. ) );
#46 = DIRECTION ( 'NONE',  ( 1.000000000000000000, 0.0000000000000000000, 0.0000000000000000000 ) ) ;
#47 = PRODUCT_DEFINITION_FORMATION_WITH_SPECIFIED_SOURCE ( 'ANY', '', #86, .NOT_KNOWN. ) ;
#48 = PERSON_AND_ORGANIZATION ( #83, #42 ) ;
#49 = APPROVAL_ROLE ( '' ) ;
#50 = CALENDAR_DATE ( 2021, 7, 12 ) ;
#51 = FACE_OUTER_BOUND ( 'NONE', #113, .T. ) ;
#52 = ORIENTED_EDGE ( 'NONE', *, *, #167, .F. ) ;
#53 = CC_DESIGN_APPROVAL ( #131, ( #47 ) ) ;
#54 = PERSON_AND_ORGANIZATION_ROLE ( 'design_supplier' ) ;
#55 = APPROVAL_PERSON_ORGANIZATION ( #70, #131, #49 ) ;
#56 = AXIS2_PLACEMENT_3D ( 'NONE', #64, #6, #39 ) ;
#57 = CARTESIAN_POINT ( 'NONE',  ( 0.0000000000000000000, 0.0000000000000000000, 0.0000000000000000000 ) ) ;
#58 = VERTEX_POINT ( 'NONE', #37 ) ;
#59 = FACE_OUTER_BOUND ( 'NONE', #159, .T. ) ;
#60 = DIRECTION ( 'NONE',  ( -3.491481338843133355E-15, 1.224646799147353207E-16, -1.000000000000000000 ) ) ;
#61 = CARTESIAN_POINT ( 'NONE',  ( 0.0000000000000000000, 0.0000000000000000000, 0.0000000000000000000 ) ) ;
#62 = ORIENTED_EDGE ( 'NONE', *, *, #167, .T. ) ;
#63 = SECURITY_CLASSIFICATION_LEVEL ( 'unclassified' ) ;
#64 = CARTESIAN_POINT ( 'NONE',  ( -5.024101948928926757E-30, 8.000000000000000000, -1.438959988998140160E-15 ) ) ;
#65 = DIRECTION ( 'NONE',  ( -3.491481338843133355E-15, 1.224646799147353207E-16, -1.000000000000000000 ) ) ;
#66 = AXIS2_PLACEMENT_3D ( 'NONE', #87, #16, #138 ) ;
#67 = AXIS2_PLACEMENT_3D ( 'NONE', #61, #26, #14 ) ;
#68 = CC_DESIGN_PERSON_AND_ORGANIZATION_ASSIGNMENT ( #41, #21, ( #71 ) ) ;
#69 = CARTESIAN_POINT ( 'NONE',  ( 2.793185071074507079E-15, 8.000000000000000000, 0.8000000000000000444 ) ) ;
#70 = PERSON_AND_ORGANIZATION ( #83, #42 ) ;
#71 = SECURITY_CLASSIFICATION ( '', '', #63 ) ;
#72 = DIRECTION ( 'NONE',  ( 0.0000000000000000000, 0.0000000000000000000, 1.000000000000000000 ) ) ;
#73 = COORDINATED_UNIVERSAL_TIME_OFFSET ( 1, 0, .AHEAD. ) ;
#74 = ORIENTED_EDGE ( 'NONE', *, *, #118, .T. ) ;
#75 = PERSON_AND_ORGANIZATION ( #83, #42 ) ;
#76 = AXIS2_PLACEMENT_3D ( 'NONE', #89, #60, #111 ) ;
#77 = LOCAL_TIME ( 10, 13, 28.00000000000000000, #79 ) ;
#78 = FACE_OUTER_BOUND ( 'NONE', #125, .T. ) ;
#79 = COORDINATED_UNIVERSAL_TIME_OFFSET ( 1, 0, .AHEAD. ) ;
#80 = CARTESIAN_POINT ( 'NONE',  ( 2.793185071074501951E-15, 8.000000000000000000, 0.7999999999999986011 ) ) ;
#81 = APPROVAL_ROLE ( '' ) ;
#82 = CC_DESIGN_PERSON_AND_ORGANIZATION_ASSIGNMENT ( #139, #158, ( #35 ) ) ;
#83 = PERSON ( 'UNSPECIFIED', 'UNSPECIFIED', 'UNSPECIFIED', ('UNSPECIFIED'), ('UNSPECIFIED'), ('UNSPECIFIED') ) ;
#84 = CALENDAR_DATE ( 2021, 7, 12 ) ;
#85 = COORDINATED_UNIVERSAL_TIME_OFFSET ( 1, 0, .AHEAD. ) ;
#86 = PRODUCT ( '977523', '977523', '', ( #109 ) ) ;
#87 = CARTESIAN_POINT ( 'NONE',  ( -1.346886905457541760E-29, 4.724243315384851574E-31, -3.857637417314162689E-15 ) ) ;
#88 = ADVANCED_FACE ( 'NONE', ( #78, #51 ), #17, .F. ) ;
#89 = CARTESIAN_POINT ( 'NONE',  ( 2.793185071074493274E-15, -9.797174393178778079E-17, 0.7999999999999961586 ) ) ;
#90 = APPLICATION_PROTOCOL_DEFINITION ( 'international standard', 'config_control_design', 1994, #168 ) ;
#91 = AXIS2_PLACEMENT_3D ( 'NONE', #99, #36, #110 ) ;
#92 = ADVANCED_FACE ( 'NONE', ( #33, #23 ), #115, .T. ) ;
#93 = PERSON_AND_ORGANIZATION ( #83, #42 ) ;
#94 = AXIS2_PLACEMENT_3D ( 'NONE', #136, #11, #137 ) ;
#95 = CC_DESIGN_DATE_AND_TIME_ASSIGNMENT ( #157, #29, ( #35 ) ) ;
#96 = CALENDAR_DATE ( 2021, 7, 12 ) ;
#97 = VERTEX_POINT ( 'NONE', #161 ) ;
#98 = ADVANCED_BREP_SHAPE_REPRESENTATION ( '977523', ( #126, #105 ), #31 ) ;
#99 = CARTESIAN_POINT ( 'NONE',  ( -3.420665156717566185E-30, 1.199807826129486086E-31, -9.797174393178825657E-16 ) ) ;
#100 = CC_DESIGN_PERSON_AND_ORGANIZATION_ASSIGNMENT ( #127, #54, ( #47 ) ) ;
#101 = DATE_AND_TIME ( #130, #146 ) ;
#102 = CARTESIAN_POINT ( 'NONE',  ( 0.0000000000000000000, 0.0000000000000000000, 0.0000000000000000000 ) ) ;
#103 = EDGE_LOOP ( 'NONE', ( #62 ) ) ;
#104 = APPROVAL_STATUS ( 'not_yet_approved' ) ;
#105 = AXIS2_PLACEMENT_3D ( 'NONE', #57, #72, #46 ) ;
#106 = UNCERTAINTY_MEASURE_WITH_UNIT (LENGTH_MEASURE( 1.000000000000000082E-05 ), #45, 'distance_accuracy_value', 'NONE');
#107 = CARTESIAN_POINT ( 'NONE',  ( 2.736911063134408342E-45, 31.50000000000000000, 0.0000000000000000000 ) ) ;
#108 = CIRCLE ( 'NONE', #76, 31.50000000000000000 ) ;
#109 = MECHANICAL_CONTEXT ( 'NONE', #168, 'mechanical' ) ;
#110 = DIRECTION ( 'NONE',  ( 4.275831445896958607E-31, 1.000000000000000000, 1.224646799147353207E-16 ) ) ;
#111 = DIRECTION ( 'NONE',  ( 4.279844320860524021E-31, 1.000000000000000000, 1.239088197126290817E-16 ) ) ;
#112 = CC_DESIGN_PERSON_AND_ORGANIZATION_ASSIGNMENT ( #93, #1, ( #86 ) ) ;
#113 = EDGE_LOOP ( 'NONE', ( #124 ) ) ;
#114 = DATE_AND_TIME ( #50, #77 ) ;
#115 = PLANE ( 'NONE',  #4 ) ;
#116 = COORDINATED_UNIVERSAL_TIME_OFFSET ( 1, 0, .AHEAD. ) ;
#117 = EDGE_CURVE ( 'NONE', #58, #58, #108, .T. ) ;
#118 = EDGE_CURVE ( 'NONE', #38, #38, #19, .T. ) ;
#119 = LOCAL_TIME ( 10, 13, 28.00000000000000000, #73 ) ;
#120 = PRODUCT_DEFINITION_SHAPE ( 'NONE', 'NONE',  #35 ) ;
#121 = CC_DESIGN_APPROVAL ( #134, ( #71 ) ) ;
#122 = CYLINDRICAL_SURFACE ( 'NONE', #67, 31.50000000000000000 ) ;
#123 = DATE_AND_TIME ( #84, #119 ) ;
#124 = ORIENTED_EDGE ( 'NONE', *, *, #118, .F. ) ;
#125 = EDGE_LOOP ( 'NONE', ( #140 ) ) ;
#126 = MANIFOLD_SOLID_BREP ( 'Corps-Déplacer/Copier1', #151 ) ;
#127 = PERSON_AND_ORGANIZATION ( #83, #42 ) ;
#128 = ORIENTED_EDGE ( 'NONE', *, *, #117, .T. ) ;
#129 = PLANE ( 'NONE',  #56 ) ;
#130 = CALENDAR_DATE ( 2021, 7, 12 ) ;
#131 = APPROVAL ( #2, 'UNSPECIFIED' ) ;
#132 = COORDINATED_UNIVERSAL_TIME_OFFSET ( 1, 0, .AHEAD. ) ;
#133 = APPROVAL_PERSON_ORGANIZATION ( #75, #134, #81 ) ;
#134 = APPROVAL ( #104, 'UNSPECIFIED' ) ;
#135 = VERTEX_POINT ( 'NONE', #107 ) ;
#136 = CARTESIAN_POINT ( 'NONE',  ( 2.793185071074503529E-15, -9.797174393178813824E-17, 0.7999999999999990452 ) ) ;
#137 = DIRECTION ( 'NONE',  ( 4.333342374871280669E-31, 1.000000000000000000, 1.219727444046192488E-16 ) ) ;
#138 = DIRECTION ( 'NONE',  ( 4.275831445896958607E-31, 1.000000000000000000, 1.224646799147353207E-16 ) ) ;
#139 = PERSON_AND_ORGANIZATION ( #83, #42 ) ;
#140 = ORIENTED_EDGE ( 'NONE', *, *, #169, .T. ) ;
#141 = APPLICATION_PROTOCOL_DEFINITION ( 'international standard', 'config_control_design', 1994, #13 ) ;
#142 = EDGE_LOOP ( 'NONE', ( #74 ) ) ;
#143 = EDGE_LOOP ( 'NONE', ( #166 ) ) ;
#144 = SHAPE_DEFINITION_REPRESENTATION ( #120, #98 ) ;
#145 = CIRCLE ( 'NONE', #66, 31.50000000000000000 ) ;
#146 = LOCAL_TIME ( 10, 13, 28.00000000000000000, #132 ) ;
#147 = DIRECTION ( 'NONE',  ( 4.275831445896958607E-31, 1.000000000000000000, 1.224646799147353207E-16 ) ) ;
#148 = PERSON_AND_ORGANIZATION ( #83, #42 ) ;
#149 = CC_DESIGN_APPROVAL ( #153, ( #35 ) ) ;
#150 = DESIGN_CONTEXT ( 'detailed design', #13, 'design' ) ;
#151 = CLOSED_SHELL ( 'NONE', ( #5, #162, #92, #88 ) ) ;
#152 = CC_DESIGN_SECURITY_CLASSIFICATION ( #71, ( #47 ) ) ;
#153 = APPROVAL ( #154, 'UNSPECIFIED' ) ;
#154 = APPROVAL_STATUS ( 'not_yet_approved' ) ;
#155 = LOCAL_TIME ( 10, 13, 28.00000000000000000, #116 ) ;
#156 = APPROVAL_ROLE ( '' ) ;
#157 = DATE_AND_TIME ( #96, #25 ) ;
#158 = PERSON_AND_ORGANIZATION_ROLE ( 'creator' ) ;
#159 = EDGE_LOOP ( 'NONE', ( #128 ) ) ;
#160 = AXIS2_PLACEMENT_3D ( 'NONE', #102, #65, #147 ) ;
#161 = CARTESIAN_POINT ( 'NONE',  ( 6.842277657836020854E-46, 8.000000000000000000, 0.0000000000000000000 ) ) ;
#162 = ADVANCED_FACE ( 'NONE', ( #59, #15 ), #122, .T. ) ;
#163 = PERSON_AND_ORGANIZATION_ROLE ( 'creator' ) ;
#164 = ORIENTED_EDGE ( 'NONE', *, *, #117, .F. ) ;
#165 = APPROVAL_DATE_TIME ( #114, #131 ) ;
#166 = ORIENTED_EDGE ( 'NONE', *, *, #169, .F. ) ;
#167 = EDGE_CURVE ( 'NONE', #135, #135, #145, .T. ) ;
#168 = APPLICATION_CONTEXT ( 'configuration controlled 3d designs of mechanical parts and assemblies' ) ;
#169 = EDGE_CURVE ( 'NONE', #97, #97, #28, .T. ) ;
ENDSEC;
END-ISO-10303-21;
