ISO-10303-21;
HEADER;
FILE_DESCRIPTION (( 'STEP AP203' ),
    '1' );
FILE_NAME ('977522.step',
    '2021-12-07T09:13:28',
    ( '' ),
    ( '' ),
    'SwSTEP 2.0',
    'SolidWorks 2019',
    '' );
FILE_SCHEMA (( 'CONFIG_CONTROL_DESIGN' ));
ENDSEC;

DATA;
#1 = DATE_AND_TIME ( #113, #167 ) ;
#2 = FACE_OUTER_BOUND ( 'NONE', #30, .T. ) ;
#3 = ADVANCED_FACE ( 'NONE', ( #46, #2 ), #89, .F. ) ;
#4 = DATE_AND_TIME ( #68, #164 ) ;
#5 =( NAMED_UNIT ( * ) SI_UNIT ( $, .STERADIAN. ) SOLID_ANGLE_UNIT ( ) );
#6 = AXIS2_PLACEMENT_3D ( 'NONE', #28, #110, #73 ) ;
#7 = APPROVAL_DATE_TIME ( #1, #128 ) ;
#8 = VERTEX_POINT ( 'NONE', #19 ) ;
#9 = FACE_OUTER_BOUND ( 'NONE', #61, .T. ) ;
#10 = AXIS2_PLACEMENT_3D ( 'NONE', #106, #66, #81 ) ;
#11 = EDGE_CURVE ( 'NONE', #35, #35, #84, .T. ) ;
#12 = CC_DESIGN_PERSON_AND_ORGANIZATION_ASSIGNMENT ( #98, #139, ( #131 ) ) ;
#13 = ORIENTED_EDGE ( 'NONE', *, *, #43, .T. ) ;
#14 = FACE_OUTER_BOUND ( 'NONE', #114, .T. ) ;
#15 = PERSON_AND_ORGANIZATION ( #119, #124 ) ;
#16 = CARTESIAN_POINT ( 'NONE',  ( -2.155019048732067320E-29, 1.209406288738522045E-30, -6.172219867702660302E-15 ) ) ;
#17 = CC_DESIGN_PERSON_AND_ORGANIZATION_ASSIGNMENT ( #15, #63, ( #44 ) ) ;
#18 = DIRECTION ( 'NONE',  ( 6.841330313435133946E-31, 1.000000000000000000, 1.959434878635765230E-16 ) ) ;
#19 = CARTESIAN_POINT ( 'NONE',  ( 0.0000000000000000000, 31.50000000000000000, 0.0000000000000000000 ) ) ;
#20 = CALENDAR_DATE ( 2021, 7, 12 ) ;
#21 = VERTEX_POINT ( 'NONE', #117 ) ;
#22 = APPROVAL ( #126, 'UNSPECIFIED' ) ;
#23 = CC_DESIGN_PERSON_AND_ORGANIZATION_ASSIGNMENT ( #159, #91, ( #44 ) ) ;
#24 = LOCAL_TIME ( 10, 13, 28.00000000000000000, #111 ) ;
#25 = UNCERTAINTY_MEASURE_WITH_UNIT (LENGTH_MEASURE( 1.000000000000000082E-05 ), #67, 'distance_accuracy_value', 'NONE');
#26 = ADVANCED_FACE ( 'NONE', ( #125, #14 ), #33, .T. ) ;
#27 = DATE_AND_TIME ( #80, #107 ) ;
#28 = CARTESIAN_POINT ( 'NONE',  ( 0.0000000000000000000, 0.0000000000000000000, 0.0000000000000000000 ) ) ;
#29 = APPROVAL_STATUS ( 'not_yet_approved' ) ;
#30 = EDGE_LOOP ( 'NONE', ( #129 ) ) ;
#31 = CARTESIAN_POINT ( 'NONE',  ( 1.745740669421545181E-15, -9.797174393178705356E-17, 0.4999999999999938383 ) ) ;
#32 = CC_DESIGN_SECURITY_CLASSIFICATION ( #131, ( #44 ) ) ;
#33 = PLANE ( 'NONE',  #69 ) ;
#34 = SECURITY_CLASSIFICATION_LEVEL ( 'unclassified' ) ;
#35 = VERTEX_POINT ( 'NONE', #64 ) ;
#36 = DIRECTION ( 'NONE',  ( -3.491481338843133355E-15, 1.959434878635765230E-16, -1.000000000000000000 ) ) ;
#37 = CYLINDRICAL_SURFACE ( 'NONE', #65, 31.50000000000000000 ) ;
#38 = COORDINATED_UNIVERSAL_TIME_OFFSET ( 1, 0, .AHEAD. ) ;
#39 = DATE_AND_TIME ( #71, #54 ) ;
#40 = ORIENTED_EDGE ( 'NONE', *, *, #70, .F. ) ;
#41 = ADVANCED_FACE ( 'NONE', ( #141, #103 ), #47, .T. ) ;
#42 = APPROVAL_ROLE ( '' ) ;
#43 = EDGE_CURVE ( 'NONE', #136, #136, #62, .T. ) ;
#44 = PRODUCT_DEFINITION_FORMATION_WITH_SPECIFIED_SOURCE ( 'ANY', '', #148, .NOT_KNOWN. ) ;
#45 = EDGE_LOOP ( 'NONE', ( #40 ) ) ;
#46 = FACE_OUTER_BOUND ( 'NONE', #143, .T. ) ;
#47 = PLANE ( 'NONE',  #145 ) ;
#48 = PRODUCT_DEFINITION ( 'UNKNOWN', '', #44, #154 ) ;
#49 = APPROVAL_DATE_TIME ( #4, #132 ) ;
#50 = CIRCLE ( 'NONE', #10, 8.000000000000000000 ) ;
#51 = DIRECTION ( 'NONE',  ( 6.740754805355325486E-31, 1.000000000000000000, 1.897353801849632760E-16 ) ) ;
#52 = DIRECTION ( 'NONE',  ( 6.841330313435133946E-31, 1.000000000000000000, 1.959434878635765230E-16 ) ) ;
#53 = DIRECTION ( 'NONE',  ( -3.491481338843133355E-15, 1.959434878635765230E-16, -1.000000000000000000 ) ) ;
#54 = LOCAL_TIME ( 10, 13, 28.00000000000000000, #57 ) ;
#55 = EDGE_CURVE ( 'NONE', #8, #8, #96, .T. ) ;
#56 = AXIS2_PLACEMENT_3D ( 'NONE', #94, #163, #83 ) ;
#57 = COORDINATED_UNIVERSAL_TIME_OFFSET ( 1, 0, .AHEAD. ) ;
#58 = ORIENTED_EDGE ( 'NONE', *, *, #70, .T. ) ;
#59 = DATE_TIME_ROLE ( 'creation_date' ) ;
#60 = COORDINATED_UNIVERSAL_TIME_OFFSET ( 1, 0, .AHEAD. ) ;
#61 = EDGE_LOOP ( 'NONE', ( #169 ) ) ;
#62 = CIRCLE ( 'NONE', #142, 8.000000000000000000 ) ;
#63 = PERSON_AND_ORGANIZATION_ROLE ( 'creator' ) ;
#64 = CARTESIAN_POINT ( 'NONE',  ( 1.745740669421566678E-15, 31.50000000000000000, 0.5000000000000000000 ) ) ;
#65 = AXIS2_PLACEMENT_3D ( 'NONE', #162, #53, #18 ) ;
#66 = DIRECTION ( 'NONE',  ( -3.491481338843133355E-15, 1.959434878635765230E-16, -1.000000000000000000 ) ) ;
#67 =( LENGTH_UNIT ( ) NAMED_UNIT ( * ) SI_UNIT ( .MILLI., .METRE. ) );
#68 = CALENDAR_DATE ( 2021, 7, 12 ) ;
#69 = AXIS2_PLACEMENT_3D ( 'NONE', #88, #90, #78 ) ;
#70 = EDGE_CURVE ( 'NONE', #21, #21, #50, .T. ) ;
#71 = CALENDAR_DATE ( 2021, 7, 12 ) ;
#72 = DATE_TIME_ROLE ( 'classification_date' ) ;
#73 = DIRECTION ( 'NONE',  ( 6.841330313435133946E-31, 1.000000000000000000, 1.959434878635765230E-16 ) ) ;
#74 = CLOSED_SHELL ( 'NONE', ( #41, #79, #26, #3 ) ) ;
#75 = DIRECTION ( 'NONE',  ( 6.847750913376838783E-31, 1.000000000000000000, 1.961889645449960522E-16 ) ) ;
#76 = APPROVAL_ROLE ( '' ) ;
#77 = ORIENTED_EDGE ( 'NONE', *, *, #55, .T. ) ;
#78 = DIRECTION ( 'NONE',  ( -6.841330313435133946E-31, -1.000000000000000000, -1.959434878635765230E-16 ) ) ;
#79 = ADVANCED_FACE ( 'NONE', ( #9, #147 ), #37, .T. ) ;
#80 = CALENDAR_DATE ( 2021, 7, 12 ) ;
#81 = DIRECTION ( 'NONE',  ( 6.841330313435133946E-31, 1.000000000000000000, 1.959434878635765230E-16 ) ) ;
#82 = DIRECTION ( 'NONE',  ( -3.491481338843133355E-15, 1.959434878635765230E-16, -1.000000000000000000 ) ) ;
#83 = DIRECTION ( 'NONE',  ( 1.000000000000000000, 0.0000000000000000000, 0.0000000000000000000 ) ) ;
#84 = CIRCLE ( 'NONE', #118, 31.50000000000000000 ) ;
#85 = APPLICATION_CONTEXT ( 'configuration controlled 3d designs of mechanical parts and assemblies' ) ;
#86 = PRODUCT_RELATED_PRODUCT_CATEGORY ( 'detail', '', ( #148 ) ) ;
#87 = SHAPE_DEFINITION_REPRESENTATION ( #140, #100 ) ;
#88 = CARTESIAN_POINT ( 'NONE',  ( 1.745740669421558592E-15, 8.000000000000000000, 0.4999999999999977240 ) ) ;
#89 = CYLINDRICAL_SURFACE ( 'NONE', #6, 8.000000000000000000 ) ;
#90 = DIRECTION ( 'NONE',  ( 3.491481338843133355E-15, -1.959434878635765230E-16, 1.000000000000000000 ) ) ;
#91 = PERSON_AND_ORGANIZATION_ROLE ( 'design_supplier' ) ;
#92 = PERSON_AND_ORGANIZATION_ROLE ( 'creator' ) ;
#93 = APPLICATION_CONTEXT ( 'configuration controlled 3d designs of mechanical parts and assemblies' ) ;
#94 = CARTESIAN_POINT ( 'NONE',  ( 0.0000000000000000000, 0.0000000000000000000, 0.0000000000000000000 ) ) ;
#95 = DIRECTION ( 'NONE',  ( 6.841330313435133946E-31, 1.000000000000000000, 1.959434878635765230E-16 ) ) ;
#96 = CIRCLE ( 'NONE', #104, 31.50000000000000000 ) ;
#97 = MECHANICAL_CONTEXT ( 'NONE', #85, 'mechanical' ) ;
#98 = PERSON_AND_ORGANIZATION ( #119, #124 ) ;
#99 = PERSON_AND_ORGANIZATION ( #119, #124 ) ;
#100 = ADVANCED_BREP_SHAPE_REPRESENTATION ( '977522', ( #130, #56 ), #155 ) ;
#101 = CC_DESIGN_APPROVAL ( #132, ( #48 ) ) ;
#102 = EDGE_LOOP ( 'NONE', ( #115 ) ) ;
#103 = FACE_BOUND ( 'NONE', #45, .T. ) ;
#104 = AXIS2_PLACEMENT_3D ( 'NONE', #16, #36, #95 ) ;
#105 = CARTESIAN_POINT ( 'NONE',  ( -8.038563118286281970E-30, 8.000000000000000000, -2.302335982397023862E-15 ) ) ;
#106 = CARTESIAN_POINT ( 'NONE',  ( -5.473064250748107157E-30, 3.071508034891484906E-31, -1.567547902908612184E-15 ) ) ;
#107 = LOCAL_TIME ( 10, 13, 28.00000000000000000, #146 ) ;
#108 = APPLICATION_PROTOCOL_DEFINITION ( 'international standard', 'config_control_design', 1994, #85 ) ;
#109 = APPROVAL_ROLE ( '' ) ;
#110 = DIRECTION ( 'NONE',  ( -3.491481338843133355E-15, 1.959434878635765230E-16, -1.000000000000000000 ) ) ;
#111 = COORDINATED_UNIVERSAL_TIME_OFFSET ( 1, 0, .AHEAD. ) ;
#112 = PERSON_AND_ORGANIZATION ( #119, #124 ) ;
#113 = CALENDAR_DATE ( 2021, 7, 12 ) ;
#114 = EDGE_LOOP ( 'NONE', ( #116 ) ) ;
#115 = ORIENTED_EDGE ( 'NONE', *, *, #55, .F. ) ;
#116 = ORIENTED_EDGE ( 'NONE', *, *, #11, .F. ) ;
#117 = CARTESIAN_POINT ( 'NONE',  ( 0.0000000000000000000, 8.000000000000000000, 0.0000000000000000000 ) ) ;
#118 = AXIS2_PLACEMENT_3D ( 'NONE', #31, #158, #75 ) ;
#119 = PERSON ( 'UNSPECIFIED', 'UNSPECIFIED', 'UNSPECIFIED', ('UNSPECIFIED'), ('UNSPECIFIED'), ('UNSPECIFIED') ) ;
#120 = PERSON_AND_ORGANIZATION ( #119, #124 ) ;
#121 = CC_DESIGN_DATE_AND_TIME_ASSIGNMENT ( #27, #59, ( #48 ) ) ;
#122 = APPROVAL_DATE_TIME ( #39, #22 ) ;
#123 = APPROVAL_PERSON_ORGANIZATION ( #112, #128, #76 ) ;
#124 = ORGANIZATION ( 'UNSPECIFIED', 'UNSPECIFIED', '' ) ;
#125 = FACE_BOUND ( 'NONE', #157, .T. ) ;
#126 = APPROVAL_STATUS ( 'not_yet_approved' ) ;
#127 = EDGE_LOOP ( 'NONE', ( #77 ) ) ;
#128 = APPROVAL ( #29, 'UNSPECIFIED' ) ;
#129 = ORIENTED_EDGE ( 'NONE', *, *, #43, .F. ) ;
#130 = MANIFOLD_SOLID_BREP ( 'Corps-Déplacer/Copier1', #74 ) ;
#131 = SECURITY_CLASSIFICATION ( '', '', #34 ) ;
#132 = APPROVAL ( #152, 'UNSPECIFIED' ) ;
#133 =( NAMED_UNIT ( * ) PLANE_ANGLE_UNIT ( ) SI_UNIT ( $, .RADIAN. ) );
#134 = DIRECTION ( 'NONE',  ( -3.491481338843133355E-15, 1.959434878635765230E-16, -1.000000000000000000 ) ) ;
#135 = CC_DESIGN_APPROVAL ( #22, ( #131 ) ) ;
#136 = VERTEX_POINT ( 'NONE', #149 ) ;
#137 = PERSON_AND_ORGANIZATION_ROLE ( 'design_owner' ) ;
#138 = APPROVAL_PERSON_ORGANIZATION ( #151, #22, #109 ) ;
#139 = PERSON_AND_ORGANIZATION_ROLE ( 'classification_officer' ) ;
#140 = PRODUCT_DEFINITION_SHAPE ( 'NONE', 'NONE',  #48 ) ;
#141 = FACE_OUTER_BOUND ( 'NONE', #127, .T. ) ;
#142 = AXIS2_PLACEMENT_3D ( 'NONE', #150, #82, #51 ) ;
#143 = EDGE_LOOP ( 'NONE', ( #58 ) ) ;
#144 = CC_DESIGN_DATE_AND_TIME_ASSIGNMENT ( #156, #72, ( #131 ) ) ;
#145 = AXIS2_PLACEMENT_3D ( 'NONE', #105, #134, #52 ) ;
#146 = COORDINATED_UNIVERSAL_TIME_OFFSET ( 1, 0, .AHEAD. ) ;
#147 = FACE_OUTER_BOUND ( 'NONE', #102, .T. ) ;
#148 = PRODUCT ( '977522', '977522', '', ( #97 ) ) ;
#149 = CARTESIAN_POINT ( 'NONE',  ( 1.745740669421566678E-15, 8.000000000000000000, 0.5000000000000000000 ) ) ;
#150 = CARTESIAN_POINT ( 'NONE',  ( 1.745740669421561353E-15, -9.797174393178796568E-17, 0.4999999999999985012 ) ) ;
#151 = PERSON_AND_ORGANIZATION ( #119, #124 ) ;
#152 = APPROVAL_STATUS ( 'not_yet_approved' ) ;
#153 = APPROVAL_PERSON_ORGANIZATION ( #99, #132, #42 ) ;
#154 = DESIGN_CONTEXT ( 'detailed design', #93, 'design' ) ;
#155 =( GEOMETRIC_REPRESENTATION_CONTEXT ( 3 ) GLOBAL_UNCERTAINTY_ASSIGNED_CONTEXT ( ( #25 ) ) GLOBAL_UNIT_ASSIGNED_CONTEXT ( ( #67, #133, #5 ) ) REPRESENTATION_CONTEXT ( 'NONE', 'WORKASPACE' ) );
#156 = DATE_AND_TIME ( #20, #24 ) ;
#157 = EDGE_LOOP ( 'NONE', ( #13 ) ) ;
#158 = DIRECTION ( 'NONE',  ( -3.491481338843133355E-15, 1.959434878635765230E-16, -1.000000000000000000 ) ) ;
#159 = PERSON_AND_ORGANIZATION ( #119, #124 ) ;
#160 = PERSON_AND_ORGANIZATION ( #119, #124 ) ;
#161 = CC_DESIGN_APPROVAL ( #128, ( #44 ) ) ;
#162 = CARTESIAN_POINT ( 'NONE',  ( 0.0000000000000000000, 0.0000000000000000000, 0.0000000000000000000 ) ) ;
#163 = DIRECTION ( 'NONE',  ( 0.0000000000000000000, 0.0000000000000000000, 1.000000000000000000 ) ) ;
#164 = LOCAL_TIME ( 10, 13, 28.00000000000000000, #38 ) ;
#165 = APPLICATION_PROTOCOL_DEFINITION ( 'international standard', 'config_control_design', 1994, #93 ) ;
#166 = CC_DESIGN_PERSON_AND_ORGANIZATION_ASSIGNMENT ( #160, #92, ( #48 ) ) ;
#167 = LOCAL_TIME ( 10, 13, 28.00000000000000000, #60 ) ;
#168 = CC_DESIGN_PERSON_AND_ORGANIZATION_ASSIGNMENT ( #120, #137, ( #148 ) ) ;
#169 = ORIENTED_EDGE ( 'NONE', *, *, #11, .T. ) ;
ENDSEC;
END-ISO-10303-21;
