ISO-10303-21;
HEADER;
FILE_DESCRIPTION (( 'STEP AP203' ),
    '1' );
FILE_NAME ('977521.step',
    '2021-12-07T09:13:27',
    ( '' ),
    ( '' ),
    'SwSTEP 2.0',
    'SolidWorks 2019',
    '' );
FILE_SCHEMA (( 'CONFIG_CONTROL_DESIGN' ));
ENDSEC;

DATA;
#1 = LOCAL_TIME ( 10, 13, 27.00000000000000000, #6 ) ;
#2 = DIRECTION ( 'NONE',  ( 0.0000000000000000000, 0.0000000000000000000, 1.000000000000000000 ) ) ;
#3 = CC_DESIGN_DATE_AND_TIME_ASSIGNMENT ( #29, #73, ( #83 ) ) ;
#4 = MECHANICAL_CONTEXT ( 'NONE', #107, 'mechanical' ) ;
#5 = DATE_AND_TIME ( #164, #1 ) ;
#6 = COORDINATED_UNIVERSAL_TIME_OFFSET ( 1, 0, .AHEAD. ) ;
#7 = CIRCLE ( 'NONE', #122, 6.500000000000000000 ) ;
#8 = SHAPE_DEFINITION_REPRESENTATION ( #92, #30 ) ;
#9 = DIRECTION ( 'NONE',  ( 4.275831445896958607E-31, 1.000000000000000000, 1.224646799147353207E-16 ) ) ;
#10 = EDGE_LOOP ( 'NONE', ( #76 ) ) ;
#11 = DIRECTION ( 'NONE',  ( -3.491481338843133355E-15, 1.224646799147353207E-16, -1.000000000000000000 ) ) ;
#12 =( NAMED_UNIT ( * ) PLANE_ANGLE_UNIT ( ) SI_UNIT ( $, .RADIAN. ) );
#13 = DATE_AND_TIME ( #25, #165 ) ;
#14 = CARTESIAN_POINT ( 'NONE',  ( 0.0000000000000000000, 6.499999999999999112, 0.0000000000000000000 ) ) ;
#15 = DATE_AND_TIME ( #114, #59 ) ;
#16 = PERSON_AND_ORGANIZATION_ROLE ( 'design_supplier' ) ;
#17 =( GEOMETRIC_REPRESENTATION_CONTEXT ( 3 ) GLOBAL_UNCERTAINTY_ASSIGNED_CONTEXT ( ( #37 ) ) GLOBAL_UNIT_ASSIGNED_CONTEXT ( ( #126, #12, #24 ) ) REPRESENTATION_CONTEXT ( 'NONE', 'WORKASPACE' ) );
#18 = DIRECTION ( 'NONE',  ( -3.491481338843133355E-15, 1.224646799147353207E-16, -1.000000000000000000 ) ) ;
#19 = PRODUCT_DEFINITION ( 'UNKNOWN', '', #129, #21 ) ;
#20 = LOCAL_TIME ( 10, 13, 27.00000000000000000, #72 ) ;
#21 = DESIGN_CONTEXT ( 'detailed design', #47, 'design' ) ;
#22 = ORIENTED_EDGE ( 'NONE', *, *, #158, .T. ) ;
#23 = PERSON_AND_ORGANIZATION ( #66, #40 ) ;
#24 =( NAMED_UNIT ( * ) SI_UNIT ( $, .STERADIAN. ) SOLID_ANGLE_UNIT ( ) );
#25 = CALENDAR_DATE ( 2021, 7, 12 ) ;
#26 = APPROVAL ( #86, 'UNSPECIFIED' ) ;
#27 = COORDINATED_UNIVERSAL_TIME_OFFSET ( 1, 0, .AHEAD. ) ;
#28 = CARTESIAN_POINT ( 'NONE',  ( 2.793185071074496035E-15, -9.797174393178789173E-17, 0.7999999999999970468 ) ) ;
#29 = DATE_AND_TIME ( #143, #20 ) ;
#30 = ADVANCED_BREP_SHAPE_REPRESENTATION ( '977521', ( #132, #147 ), #17 ) ;
#31 = CC_DESIGN_DATE_AND_TIME_ASSIGNMENT ( #53, #99, ( #19 ) ) ;
#32 = EDGE_LOOP ( 'NONE', ( #154 ) ) ;
#33 = APPROVAL_PERSON_ORGANIZATION ( #112, #166, #100 ) ;
#34 = ADVANCED_FACE ( 'NONE', ( #156, #44 ), #119, .F. ) ;
#35 = CLOSED_SHELL ( 'NONE', ( #142, #70, #89, #34 ) ) ;
#36 = EDGE_LOOP ( 'NONE', ( #58 ) ) ;
#37 = UNCERTAINTY_MEASURE_WITH_UNIT (LENGTH_MEASURE( 1.000000000000000082E-05 ), #126, 'distance_accuracy_value', 'NONE');
#38 = DIRECTION ( 'NONE',  ( -3.491481338843133355E-15, 1.224646799147353207E-16, -1.000000000000000000 ) ) ;
#39 = APPLICATION_PROTOCOL_DEFINITION ( 'international standard', 'config_control_design', 1994, #107 ) ;
#40 = ORGANIZATION ( 'UNSPECIFIED', 'UNSPECIFIED', '' ) ;
#41 = PERSON_AND_ORGANIZATION ( #66, #40 ) ;
#42 = AXIS2_PLACEMENT_3D ( 'NONE', #108, #62, #51 ) ;
#43 = PLANE ( 'NONE',  #80 ) ;
#44 = FACE_OUTER_BOUND ( 'NONE', #32, .T. ) ;
#45 = DIRECTION ( 'NONE',  ( 4.275831445896958607E-31, 1.000000000000000000, 1.224646799147353207E-16 ) ) ;
#46 = DIRECTION ( 'NONE',  ( 3.491481338843133355E-15, -1.224646799147353207E-16, 1.000000000000000000 ) ) ;
#47 = APPLICATION_CONTEXT ( 'configuration controlled 3d designs of mechanical parts and assemblies' ) ;
#48 = EDGE_CURVE ( 'NONE', #169, #169, #71, .T. ) ;
#49 = CARTESIAN_POINT ( 'NONE',  ( 0.0000000000000000000, 0.0000000000000000000, 0.0000000000000000000 ) ) ;
#50 = CARTESIAN_POINT ( 'NONE',  ( 2.793185071074504318E-15, -9.797174393178816290E-17, 0.7999999999999992673 ) ) ;
#51 = DIRECTION ( 'NONE',  ( 4.275831445896958607E-31, 1.000000000000000000, 1.224646799147353207E-16 ) ) ;
#52 = PERSON_AND_ORGANIZATION_ROLE ( 'creator' ) ;
#53 = DATE_AND_TIME ( #61, #104 ) ;
#54 = APPROVAL_ROLE ( '' ) ;
#55 = DIRECTION ( 'NONE',  ( 4.275831445896958607E-31, 1.000000000000000000, 1.224646799147353207E-16 ) ) ;
#56 = EDGE_LOOP ( 'NONE', ( #131 ) ) ;
#57 = CC_DESIGN_PERSON_AND_ORGANIZATION_ASSIGNMENT ( #78, #134, ( #19 ) ) ;
#58 = ORIENTED_EDGE ( 'NONE', *, *, #158, .F. ) ;
#59 = LOCAL_TIME ( 10, 13, 27.00000000000000000, #140 ) ;
#60 = COORDINATED_UNIVERSAL_TIME_OFFSET ( 1, 0, .AHEAD. ) ;
#61 = CALENDAR_DATE ( 2021, 7, 12 ) ;
#62 = DIRECTION ( 'NONE',  ( -3.491481338843133355E-15, 1.224646799147353207E-16, -1.000000000000000000 ) ) ;
#63 = CC_DESIGN_APPROVAL ( #162, ( #19 ) ) ;
#64 = CARTESIAN_POINT ( 'NONE',  ( 2.793185071074507079E-15, 25.00000000000000000, 0.8000000000000000444 ) ) ;
#65 = CARTESIAN_POINT ( 'NONE',  ( -1.068957861474239634E-29, 25.00000000000000000, -3.061616997868383043E-15 ) ) ;
#66 = PERSON ( 'UNSPECIFIED', 'UNSPECIFIED', 'UNSPECIFIED', ('UNSPECIFIED'), ('UNSPECIFIED'), ('UNSPECIFIED') ) ;
#67 = PERSON_AND_ORGANIZATION ( #66, #40 ) ;
#68 = APPROVAL_DATE_TIME ( #15, #26 ) ;
#69 = CC_DESIGN_PERSON_AND_ORGANIZATION_ASSIGNMENT ( #23, #136, ( #116 ) ) ;
#70 = ADVANCED_FACE ( 'NONE', ( #105, #159 ), #146, .T. ) ;
#71 = CIRCLE ( 'NONE', #102, 6.499999999999999112 ) ;
#72 = COORDINATED_UNIVERSAL_TIME_OFFSET ( 1, 0, .AHEAD. ) ;
#73 = DATE_TIME_ROLE ( 'classification_date' ) ;
#74 = ORIENTED_EDGE ( 'NONE', *, *, #75, .T. ) ;
#75 = EDGE_CURVE ( 'NONE', #138, #138, #151, .T. ) ;
#76 = ORIENTED_EDGE ( 'NONE', *, *, #48, .T. ) ;
#77 = CARTESIAN_POINT ( 'NONE',  ( 0.0000000000000000000, 0.0000000000000000000, 0.0000000000000000000 ) ) ;
#78 = PERSON_AND_ORGANIZATION ( #66, #40 ) ;
#79 = DIRECTION ( 'NONE',  ( 4.148156803295584847E-31, 1.000000000000000000, 1.167602339599773987E-16 ) ) ;
#80 = AXIS2_PLACEMENT_3D ( 'NONE', #139, #46, #168 ) ;
#81 = VERTEX_POINT ( 'NONE', #110 ) ;
#82 = DIRECTION ( 'NONE',  ( -3.491481338843133355E-15, 1.224646799147353207E-16, -1.000000000000000000 ) ) ;
#83 = SECURITY_CLASSIFICATION ( '', '', #128 ) ;
#84 = APPROVAL_PERSON_ORGANIZATION ( #41, #162, #150 ) ;
#85 = PERSON_AND_ORGANIZATION ( #66, #40 ) ;
#86 = APPROVAL_STATUS ( 'not_yet_approved' ) ;
#87 = DIRECTION ( 'NONE',  ( -3.491481338843133355E-15, 1.224646799147353207E-16, -1.000000000000000000 ) ) ;
#88 = CARTESIAN_POINT ( 'NONE',  ( 0.0000000000000000000, 0.0000000000000000000, 0.0000000000000000000 ) ) ;
#89 = ADVANCED_FACE ( 'NONE', ( #121, #118 ), #43, .T. ) ;
#90 = EDGE_LOOP ( 'NONE', ( #74 ) ) ;
#91 = CC_DESIGN_PERSON_AND_ORGANIZATION_ASSIGNMENT ( #144, #52, ( #129 ) ) ;
#92 = PRODUCT_DEFINITION_SHAPE ( 'NONE', 'NONE',  #19 ) ;
#93 = EDGE_LOOP ( 'NONE', ( #22 ) ) ;
#94 = DIRECTION ( 'NONE',  ( 1.000000000000000000, 0.0000000000000000000, 0.0000000000000000000 ) ) ;
#95 = CC_DESIGN_SECURITY_CLASSIFICATION ( #83, ( #129 ) ) ;
#96 = FACE_BOUND ( 'NONE', #56, .T. ) ;
#97 = FACE_OUTER_BOUND ( 'NONE', #90, .T. ) ;
#98 = AXIS2_PLACEMENT_3D ( 'NONE', #103, #11, #55 ) ;
#99 = DATE_TIME_ROLE ( 'creation_date' ) ;
#100 = APPROVAL_ROLE ( '' ) ;
#101 = ORIENTED_EDGE ( 'NONE', *, *, #75, .F. ) ;
#102 = AXIS2_PLACEMENT_3D ( 'NONE', #148, #87, #45 ) ;
#103 = CARTESIAN_POINT ( 'NONE',  ( -2.137915722948479268E-29, 7.498798913309288477E-31, -6.123233995736766085E-15 ) ) ;
#104 = LOCAL_TIME ( 10, 13, 27.00000000000000000, #60 ) ;
#105 = FACE_OUTER_BOUND ( 'NONE', #93, .T. ) ;
#106 = PLANE ( 'NONE',  #42 ) ;
#107 = APPLICATION_CONTEXT ( 'configuration controlled 3d designs of mechanical parts and assemblies' ) ;
#108 = CARTESIAN_POINT ( 'NONE',  ( -9.299933394825885714E-30, 6.499999999999999112, -2.663606788145493417E-15 ) ) ;
#109 = CC_DESIGN_PERSON_AND_ORGANIZATION_ASSIGNMENT ( #67, #127, ( #83 ) ) ;
#110 = CARTESIAN_POINT ( 'NONE',  ( 2.793185071074507079E-15, 6.500000000000000000, 0.8000000000000000444 ) ) ;
#111 = DIRECTION ( 'NONE',  ( -3.491481338843133355E-15, 1.224646799147353207E-16, -1.000000000000000000 ) ) ;
#112 = PERSON_AND_ORGANIZATION ( #66, #40 ) ;
#113 = AXIS2_PLACEMENT_3D ( 'NONE', #28, #82, #123 ) ;
#114 = CALENDAR_DATE ( 2021, 7, 12 ) ;
#115 = APPROVAL_STATUS ( 'not_yet_approved' ) ;
#116 = PRODUCT ( '977521', '977521', '', ( #4 ) ) ;
#117 = ORIENTED_EDGE ( 'NONE', *, *, #124, .T. ) ;
#118 = FACE_OUTER_BOUND ( 'NONE', #36, .T. ) ;
#119 = CYLINDRICAL_SURFACE ( 'NONE', #135, 6.499999999999999112 ) ;
#120 = CC_DESIGN_APPROVAL ( #26, ( #129 ) ) ;
#121 = FACE_BOUND ( 'NONE', #167, .T. ) ;
#122 = AXIS2_PLACEMENT_3D ( 'NONE', #50, #111, #79 ) ;
#123 = DIRECTION ( 'NONE',  ( 4.314083075427408311E-31, 1.000000000000000000, 1.214306433183764966E-16 ) ) ;
#124 = EDGE_CURVE ( 'NONE', #81, #81, #7, .T. ) ;
#125 = VERTEX_POINT ( 'NONE', #64 ) ;
#126 =( LENGTH_UNIT ( ) NAMED_UNIT ( * ) SI_UNIT ( .MILLI., .METRE. ) );
#127 = PERSON_AND_ORGANIZATION_ROLE ( 'classification_officer' ) ;
#128 = SECURITY_CLASSIFICATION_LEVEL ( 'unclassified' ) ;
#129 = PRODUCT_DEFINITION_FORMATION_WITH_SPECIFIED_SOURCE ( 'ANY', '', #116, .NOT_KNOWN. ) ;
#130 = EDGE_LOOP ( 'NONE', ( #101 ) ) ;
#131 = ORIENTED_EDGE ( 'NONE', *, *, #48, .F. ) ;
#132 = MANIFOLD_SOLID_BREP ( 'Corps-Déplacer/Copier1', #35 ) ;
#133 = DIRECTION ( 'NONE',  ( 4.275831445896958607E-31, 1.000000000000000000, 1.224646799147353207E-16 ) ) ;
#134 = PERSON_AND_ORGANIZATION_ROLE ( 'creator' ) ;
#135 = AXIS2_PLACEMENT_3D ( 'NONE', #88, #38, #9 ) ;
#136 = PERSON_AND_ORGANIZATION_ROLE ( 'design_owner' ) ;
#137 = CC_DESIGN_PERSON_AND_ORGANIZATION_ASSIGNMENT ( #85, #16, ( #129 ) ) ;
#138 = VERTEX_POINT ( 'NONE', #65 ) ;
#139 = CARTESIAN_POINT ( 'NONE',  ( 2.793185071074503134E-15, 6.500000000000000000, 0.7999999999999989342 ) ) ;
#140 = COORDINATED_UNIVERSAL_TIME_OFFSET ( 1, 0, .AHEAD. ) ;
#141 = PRODUCT_RELATED_PRODUCT_CATEGORY ( 'detail', '', ( #116 ) ) ;
#142 = ADVANCED_FACE ( 'NONE', ( #97, #96 ), #106, .T. ) ;
#143 = CALENDAR_DATE ( 2021, 7, 12 ) ;
#144 = PERSON_AND_ORGANIZATION ( #66, #40 ) ;
#145 = CIRCLE ( 'NONE', #113, 25.00000000000000000 ) ;
#146 = CYLINDRICAL_SURFACE ( 'NONE', #157, 25.00000000000000000 ) ;
#147 = AXIS2_PLACEMENT_3D ( 'NONE', #49, #2, #94 ) ;
#148 = CARTESIAN_POINT ( 'NONE',  ( -2.779290439833022656E-30, 9.748438587302073356E-32, -7.960204194457794491E-16 ) ) ;
#149 = CC_DESIGN_APPROVAL ( #166, ( #83 ) ) ;
#150 = APPROVAL_ROLE ( '' ) ;
#151 = CIRCLE ( 'NONE', #98, 25.00000000000000000 ) ;
#152 = APPROVAL_DATE_TIME ( #13, #162 ) ;
#153 = APPROVAL_DATE_TIME ( #5, #166 ) ;
#154 = ORIENTED_EDGE ( 'NONE', *, *, #124, .F. ) ;
#155 = APPROVAL_PERSON_ORGANIZATION ( #163, #26, #54 ) ;
#156 = FACE_OUTER_BOUND ( 'NONE', #10, .T. ) ;
#157 = AXIS2_PLACEMENT_3D ( 'NONE', #77, #18, #133 ) ;
#158 = EDGE_CURVE ( 'NONE', #125, #125, #145, .T. ) ;
#159 = FACE_OUTER_BOUND ( 'NONE', #130, .T. ) ;
#160 = APPROVAL_STATUS ( 'not_yet_approved' ) ;
#161 = APPLICATION_PROTOCOL_DEFINITION ( 'international standard', 'config_control_design', 1994, #47 ) ;
#162 = APPROVAL ( #160, 'UNSPECIFIED' ) ;
#163 = PERSON_AND_ORGANIZATION ( #66, #40 ) ;
#164 = CALENDAR_DATE ( 2021, 7, 12 ) ;
#165 = LOCAL_TIME ( 10, 13, 27.00000000000000000, #27 ) ;
#166 = APPROVAL ( #115, 'UNSPECIFIED' ) ;
#167 = EDGE_LOOP ( 'NONE', ( #117 ) ) ;
#168 = DIRECTION ( 'NONE',  ( -4.275831445896958607E-31, -1.000000000000000000, -1.224646799147353207E-16 ) ) ;
#169 = VERTEX_POINT ( 'NONE', #14 ) ;
ENDSEC;
END-ISO-10303-21;
