ISO-10303-21;
HEADER;
FILE_DESCRIPTION (( 'STEP AP203' ),
    '1' );
FILE_NAME ('977520.step',
    '2021-12-07T09:13:26',
    ( '' ),
    ( '' ),
    'SwSTEP 2.0',
    'SolidWorks 2019',
    '' );
FILE_SCHEMA (( 'CONFIG_CONTROL_DESIGN' ));
ENDSEC;

DATA;
#1 = SECURITY_CLASSIFICATION_LEVEL ( 'unclassified' ) ;
#2 = CLOSED_SHELL ( 'NONE', ( #8, #105, #89, #42 ) ) ;
#3 = APPLICATION_CONTEXT ( 'configuration controlled 3d designs of mechanical parts and assemblies' ) ;
#4 = FACE_BOUND ( 'NONE', #160, .T. ) ;
#5 = CARTESIAN_POINT ( 'NONE',  ( 0.0000000000000000000, 0.0000000000000000000, 0.0000000000000000000 ) ) ;
#6 = AXIS2_PLACEMENT_3D ( 'NONE', #164, #65, #137 ) ;
#7 = PERSON_AND_ORGANIZATION_ROLE ( 'creator' ) ;
#8 = ADVANCED_FACE ( 'NONE', ( #84, #58 ), #49, .T. ) ;
#9 = DIRECTION ( 'NONE',  ( -3.491481338843133355E-15, 1.224646799147353207E-16, -1.000000000000000000 ) ) ;
#10 = CARTESIAN_POINT ( 'NONE',  ( 1.745740669421566678E-15, 25.00000000000000000, 0.5000000000000000000 ) ) ;
#11 = CC_DESIGN_PERSON_AND_ORGANIZATION_ASSIGNMENT ( #92, #7, ( #79 ) ) ;
#12 = APPROVAL_ROLE ( '' ) ;
#13 = CC_DESIGN_SECURITY_CLASSIFICATION ( #158, ( #136 ) ) ;
#14 = APPROVAL_DATE_TIME ( #68, #76 ) ;
#15 = APPROVAL ( #40, 'UNSPECIFIED' ) ;
#16 = DATE_AND_TIME ( #106, #152 ) ;
#17 = AXIS2_PLACEMENT_3D ( 'NONE', #130, #133, #18 ) ;
#18 = DIRECTION ( 'NONE',  ( 4.275831445896958607E-31, 1.000000000000000000, 1.224646799147353207E-16 ) ) ;
#19 = AXIS2_PLACEMENT_3D ( 'NONE', #86, #163, #134 ) ;
#20 = ORIENTED_EDGE ( 'NONE', *, *, #41, .T. ) ;
#21 = ORIENTED_EDGE ( 'NONE', *, *, #83, .F. ) ;
#22 = LOCAL_TIME ( 10, 13, 26.00000000000000000, #151 ) ;
#23 =( NAMED_UNIT ( * ) SI_UNIT ( $, .STERADIAN. ) SOLID_ANGLE_UNIT ( ) );
#24 = CC_DESIGN_PERSON_AND_ORGANIZATION_ASSIGNMENT ( #150, #90, ( #66 ) ) ;
#25 = PERSON_AND_ORGANIZATION ( #120, #72 ) ;
#26 = APPLICATION_PROTOCOL_DEFINITION ( 'international standard', 'config_control_design', 1994, #3 ) ;
#27 = CC_DESIGN_DATE_AND_TIME_ASSIGNMENT ( #16, #143, ( #158 ) ) ;
#28 = DIRECTION ( 'NONE',  ( 1.000000000000000000, 0.0000000000000000000, 0.0000000000000000000 ) ) ;
#29 = COORDINATED_UNIVERSAL_TIME_OFFSET ( 1, 0, .AHEAD. ) ;
#30 = CIRCLE ( 'NONE', #19, 6.499999999999999112 ) ;
#31 = CC_DESIGN_PERSON_AND_ORGANIZATION_ASSIGNMENT ( #128, #57, ( #136 ) ) ;
#32 = COORDINATED_UNIVERSAL_TIME_OFFSET ( 1, 0, .AHEAD. ) ;
#33 = DIRECTION ( 'NONE',  ( 4.148156803295584847E-31, 1.000000000000000000, 1.167602339599773987E-16 ) ) ;
#34 = ORIENTED_EDGE ( 'NONE', *, *, #132, .F. ) ;
#35 = ORIENTED_EDGE ( 'NONE', *, *, #45, .T. ) ;
#36 = APPLICATION_PROTOCOL_DEFINITION ( 'international standard', 'config_control_design', 1994, #74 ) ;
#37 =( GEOMETRIC_REPRESENTATION_CONTEXT ( 3 ) GLOBAL_UNCERTAINTY_ASSIGNED_CONTEXT ( ( #39 ) ) GLOBAL_UNIT_ASSIGNED_CONTEXT ( ( #88, #138, #23 ) ) REPRESENTATION_CONTEXT ( 'NONE', 'WORKASPACE' ) );
#38 = DIRECTION ( 'NONE',  ( -4.275831445896958607E-31, -1.000000000000000000, -1.224646799147353207E-16 ) ) ;
#39 = UNCERTAINTY_MEASURE_WITH_UNIT (LENGTH_MEASURE( 1.000000000000000082E-05 ), #88, 'distance_accuracy_value', 'NONE');
#40 = APPROVAL_STATUS ( 'not_yet_approved' ) ;
#41 = EDGE_CURVE ( 'NONE', #54, #54, #30, .T. ) ;
#42 = ADVANCED_FACE ( 'NONE', ( #118, #121 ), #47, .F. ) ;
#43 = PERSON_AND_ORGANIZATION_ROLE ( 'classification_officer' ) ;
#44 = AXIS2_PLACEMENT_3D ( 'NONE', #50, #145, #33 ) ;
#45 = EDGE_CURVE ( 'NONE', #168, #168, #69, .T. ) ;
#46 = LOCAL_TIME ( 10, 13, 26.00000000000000000, #73 ) ;
#47 = CYLINDRICAL_SURFACE ( 'NONE', #82, 6.499999999999999112 ) ;
#48 = EDGE_LOOP ( 'NONE', ( #147 ) ) ;
#49 = PLANE ( 'NONE',  #17 ) ;
#50 = CARTESIAN_POINT ( 'NONE',  ( 1.745740669421564114E-15, -6.123233995736757408E-17, 0.4999999999999992784 ) ) ;
#51 = CARTESIAN_POINT ( 'NONE',  ( 1.745740669421566678E-15, 6.500000000000000000, 0.5000000000000000000 ) ) ;
#52 = DESIGN_CONTEXT ( 'detailed design', #74, 'design' ) ;
#53 = DIRECTION ( 'NONE',  ( 0.0000000000000000000, 0.0000000000000000000, 1.000000000000000000 ) ) ;
#54 = VERTEX_POINT ( 'NONE', #126 ) ;
#55 = PERSON_AND_ORGANIZATION ( #120, #72 ) ;
#56 = APPROVAL_PERSON_ORGANIZATION ( #153, #15, #166 ) ;
#57 = PERSON_AND_ORGANIZATION_ROLE ( 'design_supplier' ) ;
#58 = FACE_BOUND ( 'NONE', #96, .T. ) ;
#59 = CC_DESIGN_APPROVAL ( #76, ( #136 ) ) ;
#60 = LOCAL_TIME ( 10, 13, 26.00000000000000000, #32 ) ;
#61 = EDGE_LOOP ( 'NONE', ( #34 ) ) ;
#62 = DIRECTION ( 'NONE',  ( -3.491481338843133355E-15, 1.224646799147353207E-16, -1.000000000000000000 ) ) ;
#63 = EDGE_LOOP ( 'NONE', ( #35 ) ) ;
#64 = DATE_AND_TIME ( #123, #46 ) ;
#65 = DIRECTION ( 'NONE',  ( -3.491481338843133355E-15, 1.224646799147353207E-16, -1.000000000000000000 ) ) ;
#66 = PRODUCT ( '977520', '977520', '', ( #125 ) ) ;
#67 = APPROVAL_PERSON_ORGANIZATION ( #55, #149, #12 ) ;
#68 = DATE_AND_TIME ( #93, #127 ) ;
#69 = CIRCLE ( 'NONE', #155, 25.00000000000000000 ) ;
#70 = PERSON_AND_ORGANIZATION ( #120, #72 ) ;
#71 = MANIFOLD_SOLID_BREP ( 'Corps-Déplacer/Copier1', #2 ) ;
#72 = ORGANIZATION ( 'UNSPECIFIED', 'UNSPECIFIED', '' ) ;
#73 = COORDINATED_UNIVERSAL_TIME_OFFSET ( 1, 0, .AHEAD. ) ;
#74 = APPLICATION_CONTEXT ( 'configuration controlled 3d designs of mechanical parts and assemblies' ) ;
#75 = CARTESIAN_POINT ( 'NONE',  ( 0.0000000000000000000, 0.0000000000000000000, 0.0000000000000000000 ) ) ;
#76 = APPROVAL ( #156, 'UNSPECIFIED' ) ;
#77 = DIRECTION ( 'NONE',  ( 3.491481338843133355E-15, -1.224646799147353207E-16, 1.000000000000000000 ) ) ;
#78 = CARTESIAN_POINT ( 'NONE',  ( -1.068957861474239634E-29, 25.00000000000000000, -3.061616997868383043E-15 ) ) ;
#79 = PRODUCT_DEFINITION ( 'UNKNOWN', '', #136, #52 ) ;
#80 = CC_DESIGN_APPROVAL ( #149, ( #158 ) ) ;
#81 = CALENDAR_DATE ( 2021, 7, 12 ) ;
#82 = AXIS2_PLACEMENT_3D ( 'NONE', #5, #62, #109 ) ;
#83 = EDGE_CURVE ( 'NONE', #91, #91, #116, .T. ) ;
#84 = FACE_OUTER_BOUND ( 'NONE', #63, .T. ) ;
#85 = EDGE_LOOP ( 'NONE', ( #20 ) ) ;
#86 = CARTESIAN_POINT ( 'NONE',  ( -2.779290439833022656E-30, 9.748438587302073356E-32, -7.960204194457794491E-16 ) ) ;
#87 = DATE_AND_TIME ( #154, #22 ) ;
#88 =( LENGTH_UNIT ( ) NAMED_UNIT ( * ) SI_UNIT ( .MILLI., .METRE. ) );
#89 = ADVANCED_FACE ( 'NONE', ( #4, #165 ), #113, .T. ) ;
#90 = PERSON_AND_ORGANIZATION_ROLE ( 'design_owner' ) ;
#91 = VERTEX_POINT ( 'NONE', #51 ) ;
#92 = PERSON_AND_ORGANIZATION ( #120, #72 ) ;
#93 = CALENDAR_DATE ( 2021, 7, 12 ) ;
#94 = APPROVAL_DATE_TIME ( #142, #149 ) ;
#95 = AXIS2_PLACEMENT_3D ( 'NONE', #110, #9, #111 ) ;
#96 = EDGE_LOOP ( 'NONE', ( #119 ) ) ;
#97 = EDGE_LOOP ( 'NONE', ( #21 ) ) ;
#98 = CC_DESIGN_PERSON_AND_ORGANIZATION_ASSIGNMENT ( #104, #115, ( #136 ) ) ;
#99 = DIRECTION ( 'NONE',  ( -3.491481338843133355E-15, 1.224646799147353207E-16, -1.000000000000000000 ) ) ;
#100 = VERTEX_POINT ( 'NONE', #10 ) ;
#101 = CARTESIAN_POINT ( 'NONE',  ( 1.745740669421562931E-15, 6.500000000000000000, 0.4999999999999989453 ) ) ;
#102 = CYLINDRICAL_SURFACE ( 'NONE', #95, 25.00000000000000000 ) ;
#103 = SHAPE_DEFINITION_REPRESENTATION ( #107, #167 ) ;
#104 = PERSON_AND_ORGANIZATION ( #120, #72 ) ;
#105 = ADVANCED_FACE ( 'NONE', ( #112, #135 ), #102, .T. ) ;
#106 = CALENDAR_DATE ( 2021, 7, 12 ) ;
#107 = PRODUCT_DEFINITION_SHAPE ( 'NONE', 'NONE',  #79 ) ;
#108 = APPROVAL_PERSON_ORGANIZATION ( #25, #76, #157 ) ;
#109 = DIRECTION ( 'NONE',  ( 4.275831445896958607E-31, 1.000000000000000000, 1.224646799147353207E-16 ) ) ;
#110 = CARTESIAN_POINT ( 'NONE',  ( 0.0000000000000000000, 0.0000000000000000000, 0.0000000000000000000 ) ) ;
#111 = DIRECTION ( 'NONE',  ( 4.275831445896958607E-31, 1.000000000000000000, 1.224646799147353207E-16 ) ) ;
#112 = FACE_OUTER_BOUND ( 'NONE', #48, .T. ) ;
#113 = PLANE ( 'NONE',  #141 ) ;
#114 = CC_DESIGN_APPROVAL ( #15, ( #79 ) ) ;
#115 = PERSON_AND_ORGANIZATION_ROLE ( 'creator' ) ;
#116 = CIRCLE ( 'NONE', #44, 6.500000000000000000 ) ;
#117 = CC_DESIGN_PERSON_AND_ORGANIZATION_ASSIGNMENT ( #70, #43, ( #158 ) ) ;
#118 = FACE_OUTER_BOUND ( 'NONE', #85, .T. ) ;
#119 = ORIENTED_EDGE ( 'NONE', *, *, #41, .F. ) ;
#120 = PERSON ( 'UNSPECIFIED', 'UNSPECIFIED', 'UNSPECIFIED', ('UNSPECIFIED'), ('UNSPECIFIED'), ('UNSPECIFIED') ) ;
#121 = FACE_OUTER_BOUND ( 'NONE', #97, .T. ) ;
#122 = APPROVAL_DATE_TIME ( #87, #15 ) ;
#123 = CALENDAR_DATE ( 2021, 7, 12 ) ;
#124 = CC_DESIGN_DATE_AND_TIME_ASSIGNMENT ( #64, #140, ( #79 ) ) ;
#125 = MECHANICAL_CONTEXT ( 'NONE', #3, 'mechanical' ) ;
#126 = CARTESIAN_POINT ( 'NONE',  ( 0.0000000000000000000, 6.499999999999999112, 0.0000000000000000000 ) ) ;
#127 = LOCAL_TIME ( 10, 13, 26.00000000000000000, #129 ) ;
#128 = PERSON_AND_ORGANIZATION ( #120, #72 ) ;
#129 = COORDINATED_UNIVERSAL_TIME_OFFSET ( 1, 0, .AHEAD. ) ;
#130 = CARTESIAN_POINT ( 'NONE',  ( -9.299933394825885714E-30, 6.499999999999999112, -2.663606788145493417E-15 ) ) ;
#131 = EDGE_LOOP ( 'NONE', ( #159 ) ) ;
#132 = EDGE_CURVE ( 'NONE', #100, #100, #161, .T. ) ;
#133 = DIRECTION ( 'NONE',  ( -3.491481338843133355E-15, 1.224646799147353207E-16, -1.000000000000000000 ) ) ;
#134 = DIRECTION ( 'NONE',  ( 4.275831445896958607E-31, 1.000000000000000000, 1.224646799147353207E-16 ) ) ;
#135 = FACE_OUTER_BOUND ( 'NONE', #131, .T. ) ;
#136 = PRODUCT_DEFINITION_FORMATION_WITH_SPECIFIED_SOURCE ( 'ANY', '', #66, .NOT_KNOWN. ) ;
#137 = DIRECTION ( 'NONE',  ( 4.314083075427408311E-31, 1.000000000000000000, 1.214306433183764966E-16 ) ) ;
#138 =( NAMED_UNIT ( * ) PLANE_ANGLE_UNIT ( ) SI_UNIT ( $, .RADIAN. ) );
#139 = PRODUCT_RELATED_PRODUCT_CATEGORY ( 'detail', '', ( #66 ) ) ;
#140 = DATE_TIME_ROLE ( 'creation_date' ) ;
#141 = AXIS2_PLACEMENT_3D ( 'NONE', #101, #77, #38 ) ;
#142 = DATE_AND_TIME ( #81, #60 ) ;
#143 = DATE_TIME_ROLE ( 'classification_date' ) ;
#144 = AXIS2_PLACEMENT_3D ( 'NONE', #75, #53, #28 ) ;
#145 = DIRECTION ( 'NONE',  ( -3.491481338843133355E-15, 1.224646799147353207E-16, -1.000000000000000000 ) ) ;
#146 = ORIENTED_EDGE ( 'NONE', *, *, #83, .T. ) ;
#147 = ORIENTED_EDGE ( 'NONE', *, *, #132, .T. ) ;
#148 = DIRECTION ( 'NONE',  ( 4.275831445896958607E-31, 1.000000000000000000, 1.224646799147353207E-16 ) ) ;
#149 = APPROVAL ( #169, 'UNSPECIFIED' ) ;
#150 = PERSON_AND_ORGANIZATION ( #120, #72 ) ;
#151 = COORDINATED_UNIVERSAL_TIME_OFFSET ( 1, 0, .AHEAD. ) ;
#152 = LOCAL_TIME ( 10, 13, 26.00000000000000000, #29 ) ;
#153 = PERSON_AND_ORGANIZATION ( #120, #72 ) ;
#154 = CALENDAR_DATE ( 2021, 7, 12 ) ;
#155 = AXIS2_PLACEMENT_3D ( 'NONE', #162, #99, #148 ) ;
#156 = APPROVAL_STATUS ( 'not_yet_approved' ) ;
#157 = APPROVAL_ROLE ( '' ) ;
#158 = SECURITY_CLASSIFICATION ( '', '', #1 ) ;
#159 = ORIENTED_EDGE ( 'NONE', *, *, #45, .F. ) ;
#160 = EDGE_LOOP ( 'NONE', ( #146 ) ) ;
#161 = CIRCLE ( 'NONE', #6, 25.00000000000000000 ) ;
#162 = CARTESIAN_POINT ( 'NONE',  ( -2.137915722948479268E-29, 7.498798913309288477E-31, -6.123233995736766085E-15 ) ) ;
#163 = DIRECTION ( 'NONE',  ( -3.491481338843133355E-15, 1.224646799147353207E-16, -1.000000000000000000 ) ) ;
#164 = CARTESIAN_POINT ( 'NONE',  ( 1.745740669421556028E-15, -6.123233995736727825E-17, 0.4999999999999970024 ) ) ;
#165 = FACE_OUTER_BOUND ( 'NONE', #61, .T. ) ;
#166 = APPROVAL_ROLE ( '' ) ;
#167 = ADVANCED_BREP_SHAPE_REPRESENTATION ( '977520', ( #71, #144 ), #37 ) ;
#168 = VERTEX_POINT ( 'NONE', #78 ) ;
#169 = APPROVAL_STATUS ( 'not_yet_approved' ) ;
ENDSEC;
END-ISO-10303-21;
