ISO-10303-21;
HEADER;
FILE_DESCRIPTION (( 'STEP AP203' ),
    '1' );
FILE_NAME ('976866.step',
    '2021-10-13T11:36:42',
    ( '' ),
    ( '' ),
    'SwSTEP 2.0',
    'SolidWorks 2019',
    '' );
FILE_SCHEMA (( 'CONFIG_CONTROL_DESIGN' ));
ENDSEC;

DATA;
#1 = ADVANCED_FACE ( 'NONE', ( #77 ), #200, .T. ) ;
#2 = DIRECTION ( 'NONE',  ( -3.491481338843133355E-15, 1.224646799147353207E-16, -1.000000000000000000 ) ) ;
#3 = UNCERTAINTY_MEASURE_WITH_UNIT (LENGTH_MEASURE( 1.000000000000000082E-05 ), #18, 'distance_accuracy_value', 'NONE');
#4 = APPLICATION_CONTEXT ( 'configuration controlled 3d designs of mechanical parts and assemblies' ) ;
#5 = ORIENTED_EDGE ( 'NONE', *, *, #157, .F. ) ;
#6 = DIRECTION ( 'NONE',  ( 3.491481338843133355E-15, -4.327174794786742882E-16, 1.000000000000000000 ) ) ;
#7 = DIRECTION ( 'NONE',  ( -3.491481338843133355E-15, 1.224646799147353207E-16, -1.000000000000000000 ) ) ;
#8 = EDGE_LOOP ( 'NONE', ( #33 ) ) ;
#9 = ORGANIZATION ( 'UNSPECIFIED', 'UNSPECIFIED', '' ) ;
#10 = FACE_OUTER_BOUND ( 'NONE', #151, .T. ) ;
#11 = EDGE_LOOP ( 'NONE', ( #215 ) ) ;
#12 = PERSON_AND_ORGANIZATION_ROLE ( 'design_supplier' ) ;
#13 = APPROVAL ( #205, 'UNSPECIFIED' ) ;
#14 = DATE_AND_TIME ( #199, #70 ) ;
#15 = PERSON_AND_ORGANIZATION ( #153, #9 ) ;
#16 = DIRECTION ( 'NONE',  ( -3.491481338843133355E-15, 1.224646799147353207E-16, -1.000000000000000000 ) ) ;
#17 = AXIS2_PLACEMENT_3D ( 'NONE', #172, #250, #80 ) ;
#18 =( LENGTH_UNIT ( ) NAMED_UNIT ( * ) SI_UNIT ( .MILLI., .METRE. ) );
#19 = DATE_AND_TIME ( #201, #43 ) ;
#20 = APPLICATION_PROTOCOL_DEFINITION ( 'international standard', 'config_control_design', 1994, #248 ) ;
#21 = CYLINDRICAL_SURFACE ( 'NONE', #228, 0.9500000000000015099 ) ;
#22 = CLOSED_SHELL ( 'NONE', ( #262, #169, #1 ) ) ;
#23 =( GEOMETRIC_REPRESENTATION_CONTEXT ( 3 ) GLOBAL_UNCERTAINTY_ASSIGNED_CONTEXT ( ( #3 ) ) GLOBAL_UNIT_ASSIGNED_CONTEXT ( ( #18, #139, #127 ) ) REPRESENTATION_CONTEXT ( 'NONE', 'WORKASPACE' ) );
#24 = DIRECTION ( 'NONE',  ( -3.491481338843133355E-15, 1.224646799147353207E-16, -1.000000000000000000 ) ) ;
#25 = APPROVAL_ROLE ( '' ) ;
#26 = AXIS2_PLACEMENT_3D ( 'NONE', #104, #222, #240 ) ;
#27 = DIRECTION ( 'NONE',  ( 1.546832183442905183E-30, 1.000000000000000000, 4.327174794786742882E-16 ) ) ;
#28 = DIRECTION ( 'NONE',  ( -3.491481338843133355E-15, 1.224646799147353207E-16, -1.000000000000000000 ) ) ;
#29 = DIRECTION ( 'NONE',  ( -3.491481338843133355E-15, 4.327174794786742882E-16, -1.000000000000000000 ) ) ;
#30 = APPROVAL_PERSON_ORGANIZATION ( #258, #119, #39 ) ;
#31 = CYLINDRICAL_SURFACE ( 'NONE', #166, 1.499999999999993117 ) ;
#32 = AXIS2_PLACEMENT_3D ( 'NONE', #192, #7, #230 ) ;
#33 = ORIENTED_EDGE ( 'NONE', *, *, #210, .F. ) ;
#34 = PERSON_AND_ORGANIZATION_ROLE ( 'creator' ) ;
#35 = CARTESIAN_POINT ( 'NONE',  ( 1.207255516793085805E-15, -4.234482332600721470E-17, 0.3457717225528971761 ) ) ;
#36 = DIRECTION ( 'NONE',  ( -5.135813185032661930E-31, -1.000000000000000000, -1.445602896647348531E-16 ) ) ;
#37 = SECURITY_CLASSIFICATION ( '', '', #54 ) ;
#38 = CC_DESIGN_PERSON_AND_ORGANIZATION_ASSIGNMENT ( #15, #256, ( #37 ) ) ;
#39 = APPROVAL_ROLE ( '' ) ;
#40 = FACE_OUTER_BOUND ( 'NONE', #171, .T. ) ;
#41 = VERTEX_POINT ( 'NONE', #203 ) ;
#42 = AXIS2_PLACEMENT_3D ( 'NONE', #35, #24, #108 ) ;
#43 = LOCAL_TIME ( 13, 36, 42.00000000000000000, #82 ) ;
#44 = AXIS2_PLACEMENT_3D ( 'NONE', #115, #138, #95 ) ;
#45 = EDGE_CURVE ( 'NONE', #55, #55, #121, .T. ) ;
#46 = ORIENTED_EDGE ( 'NONE', *, *, #101, .F. ) ;
#47 = CARTESIAN_POINT ( 'NONE',  ( 2.444036937190193349E-14, 1.124819836996385406E-32, 7.000000000000000000 ) ) ;
#48 = ORIENTED_EDGE ( 'NONE', *, *, #62, .F. ) ;
#49 = DIRECTION ( 'NONE',  ( 0.0000000000000000000, 1.000000000000000000, 0.0000000000000000000 ) ) ;
#50 = EDGE_LOOP ( 'NONE', ( #137 ) ) ;
#51 = PERSON_AND_ORGANIZATION ( #153, #9 ) ;
#52 = PERSON_AND_ORGANIZATION ( #153, #9 ) ;
#53 = EDGE_LOOP ( 'NONE', ( #5 ) ) ;
#54 = SECURITY_CLASSIFICATION_LEVEL ( 'unclassified' ) ;
#55 = VERTEX_POINT ( 'NONE', #185 ) ;
#56 = APPROVAL_DATE_TIME ( #122, #261 ) ;
#57 = AXIS2_PLACEMENT_3D ( 'NONE', #209, #28, #136 ) ;
#58 = CC_DESIGN_DATE_AND_TIME_ASSIGNMENT ( #19, #126, ( #37 ) ) ;
#59 = AXIS2_PLACEMENT_3D ( 'NONE', #71, #110, #182 ) ;
#60 = PERSON_AND_ORGANIZATION ( #153, #9 ) ;
#61 = VERTEX_POINT ( 'NONE', #218 ) ;
#62 = EDGE_CURVE ( 'NONE', #242, #242, #161, .T. ) ;
#63 = CIRCLE ( 'NONE', #59, 1.499999999999995115 ) ;
#64 = PLANE ( 'NONE',  #88 ) ;
#65 = CARTESIAN_POINT ( 'NONE',  ( 2.444036937190193349E-14, -3.029022356350720412E-15, 7.000000000000000000 ) ) ;
#66 = CC_DESIGN_PERSON_AND_ORGANIZATION_ASSIGNMENT ( #60, #124, ( #148 ) ) ;
#67 = CARTESIAN_POINT ( 'NONE',  ( 0.0000000000000000000, 0.0000000000000000000, 0.0000000000000000000 ) ) ;
#68 = CARTESIAN_POINT ( 'NONE',  ( 1.207255516793085410E-15, -0.9500000000000015099, 0.3457717225528970650 ) ) ;
#69 = CC_DESIGN_APPROVAL ( #13, ( #177 ) ) ;
#70 = LOCAL_TIME ( 13, 36, 42.00000000000000000, #100 ) ;
#71 = CARTESIAN_POINT ( 'NONE',  ( 1.312796983405018394E-13, -4.604671964794048513E-15, 37.60000000000000853 ) ) ;
#72 = CC_DESIGN_DATE_AND_TIME_ASSIGNMENT ( #94, #91, ( #148 ) ) ;
#73 = AXIS2_PLACEMENT_3D ( 'NONE', #125, #219, #129 ) ;
#74 = CONICAL_SURFACE ( 'NONE', #149, 2.000000000000000444, 0.2617993877991505181 ) ;
#75 = VERTEX_POINT ( 'NONE', #111 ) ;
#76 = CARTESIAN_POINT ( 'NONE',  ( 4.905638066472296672E-14, -6.079812931384255988E-15, 14.05030584553469097 ) ) ;
#77 = FACE_OUTER_BOUND ( 'NONE', #235, .T. ) ;
#78 = FACE_OUTER_BOUND ( 'NONE', #114, .T. ) ;
#79 = MANIFOLD_SOLID_BREP ( 'Corps-Déplacer/Copier1[2]', #22 ) ;
#80 = DIRECTION ( 'NONE',  ( 1.510825004591027855E-30, 1.000000000000000000, 4.327174794786742882E-16 ) ) ;
#81 = EDGE_LOOP ( 'NONE', ( #46 ) ) ;
#82 = COORDINATED_UNIVERSAL_TIME_OFFSET ( 1, 0, .AHEAD. ) ;
#83 = CYLINDRICAL_SURFACE ( 'NONE', #17, 0.9500000000000015099 ) ;
#84 = VERTEX_POINT ( 'NONE', #143 ) ;
#85 = ORIENTED_EDGE ( 'NONE', *, *, #157, .T. ) ;
#86 = CARTESIAN_POINT ( 'NONE',  ( 2.444036937190193349E-14, -0.9500000000000045075, 7.000000000000000000 ) ) ;
#87 = EDGE_LOOP ( 'NONE', ( #233 ) ) ;
#88 = AXIS2_PLACEMENT_3D ( 'NONE', #90, #257, #243 ) ;
#89 = LOCAL_TIME ( 13, 36, 42.00000000000000000, #102 ) ;
#90 = CARTESIAN_POINT ( 'NONE',  ( 1.326762908760390423E-13, 8.248678804640111472E-33, 38.00000000000000000 ) ) ;
#91 = DATE_TIME_ROLE ( 'creation_date' ) ;
#92 = FACE_OUTER_BOUND ( 'NONE', #117, .T. ) ;
#93 = ADVANCED_FACE ( 'NONE', ( #78, #40 ), #213, .F. ) ;
#94 = DATE_AND_TIME ( #186, #263 ) ;
#95 = DIRECTION ( 'NONE',  ( 0.0000000000000000000, -1.000000000000000000, 0.0000000000000000000 ) ) ;
#96 = CC_DESIGN_PERSON_AND_ORGANIZATION_ASSIGNMENT ( #51, #12, ( #177 ) ) ;
#97 = EDGE_LOOP ( 'NONE', ( #252 ) ) ;
#98 = FACE_OUTER_BOUND ( 'NONE', #217, .T. ) ;
#99 = AXIS2_PLACEMENT_3D ( 'NONE', #229, #206, #27 ) ;
#100 = COORDINATED_UNIVERSAL_TIME_OFFSET ( 1, 0, .AHEAD. ) ;
#101 = EDGE_CURVE ( 'NONE', #41, #41, #63, .T. ) ;
#102 = COORDINATED_UNIVERSAL_TIME_OFFSET ( 1, 0, .AHEAD. ) ;
#103 = APPROVAL_STATUS ( 'not_yet_approved' ) ;
#104 = CARTESIAN_POINT ( 'NONE',  ( 2.444036937190193349E-14, 1.124819836996385406E-32, 7.000000000000000000 ) ) ;
#105 = PRODUCT ( '976866', '976866', '', ( #204 ) ) ;
#106 = AXIS2_PLACEMENT_3D ( 'NONE', #65, #16, #146 ) ;
#107 = CLOSED_SHELL ( 'NONE', ( #181, #207, #132, #260, #226, #93, #195 ) ) ;
#108 = DIRECTION ( 'NONE',  ( -4.054589356604700560E-31, -1.000000000000000000, -1.141265444721581785E-16 ) ) ;
#109 = COORDINATED_UNIVERSAL_TIME_OFFSET ( 1, 0, .AHEAD. ) ;
#110 = DIRECTION ( 'NONE',  ( -3.491481338843133355E-15, 1.224646799147353207E-16, -1.000000000000000000 ) ) ;
#111 = CARTESIAN_POINT ( 'NONE',  ( 2.444036937190193349E-14, -0.9500000000000045075, 7.000000000000000000 ) ) ;
#112 = FACE_OUTER_BOUND ( 'NONE', #11, .T. ) ;
#113 = APPROVAL_PERSON_ORGANIZATION ( #246, #13, #25 ) ;
#114 = EDGE_LOOP ( 'NONE', ( #155 ) ) ;
#115 = CARTESIAN_POINT ( 'NONE',  ( 4.254118778960231011E-14, -5.272351122015469767E-15, 12.18428044175023395 ) ) ;
#116 = PRODUCT_DEFINITION_SHAPE ( 'NONE', 'NONE',  #148 ) ;
#117 = EDGE_LOOP ( 'NONE', ( #48 ) ) ;
#118 = FACE_BOUND ( 'NONE', #53, .T. ) ;
#119 = APPROVAL ( #164, 'UNSPECIFIED' ) ;
#120 = CARTESIAN_POINT ( 'NONE',  ( 0.0000000000000000000, 0.0000000000000000000, 0.0000000000000000000 ) ) ;
#121 = CIRCLE ( 'NONE', #73, 0.9500000000000030642 ) ;
#122 = DATE_AND_TIME ( #158, #89 ) ;
#123 = CIRCLE ( 'NONE', #32, 0.9500000000000015099 ) ;
#124 = PERSON_AND_ORGANIZATION_ROLE ( 'creator' ) ;
#125 = CARTESIAN_POINT ( 'NONE',  ( 3.491481338843133355E-14, -4.327174794786742882E-15, 10.00000000000000000 ) ) ;
#126 = DATE_TIME_ROLE ( 'classification_date' ) ;
#127 =( NAMED_UNIT ( * ) SI_UNIT ( $, .STERADIAN. ) SOLID_ANGLE_UNIT ( ) );
#128 = FACE_OUTER_BOUND ( 'NONE', #197, .T. ) ;
#129 = DIRECTION ( 'NONE',  ( 0.0000000000000000000, 1.000000000000000000, 0.0000000000000000000 ) ) ;
#130 = DESIGN_CONTEXT ( 'detailed design', #4, 'design' ) ;
#131 = CC_DESIGN_SECURITY_CLASSIFICATION ( #37, ( #177 ) ) ;
#132 = ADVANCED_FACE ( 'NONE', ( #128 ), #64, .F. ) ;
#133 = DIRECTION ( 'NONE',  ( 0.0000000000000000000, 1.000000000000000000, 0.0000000000000000000 ) ) ;
#134 = DIRECTION ( 'NONE',  ( 3.491481338843133355E-15, -1.224646799147353207E-16, 1.000000000000000000 ) ) ;
#135 = ORIENTED_EDGE ( 'NONE', *, *, #62, .T. ) ;
#136 = DIRECTION ( 'NONE',  ( 0.0000000000000000000, 1.000000000000000000, 0.0000000000000000000 ) ) ;
#137 = ORIENTED_EDGE ( 'NONE', *, *, #145, .T. ) ;
#138 = DIRECTION ( 'NONE',  ( 3.491481338843133355E-15, -4.327174794786742882E-16, 1.000000000000000000 ) ) ;
#139 =( NAMED_UNIT ( * ) PLANE_ANGLE_UNIT ( ) SI_UNIT ( $, .RADIAN. ) );
#140 = CIRCLE ( 'NONE', #238, 0.9840741737109346410 ) ;
#141 = COORDINATED_UNIVERSAL_TIME_OFFSET ( 1, 0, .AHEAD. ) ;
#142 = ADVANCED_BREP_SHAPE_REPRESENTATION ( '976866', ( #245, #79, #194 ), #23 ) ;
#143 = CARTESIAN_POINT ( 'NONE',  ( 4.254118778960231011E-14, -1.499999999999998224, 12.18428044175023395 ) ) ;
#144 = CARTESIAN_POINT ( 'NONE',  ( 3.581847525454398462E-14, 0.9840741737109303111, 10.25881904510252163 ) ) ;
#145 = EDGE_CURVE ( 'NONE', #75, #75, #236, .T. ) ;
#146 = DIRECTION ( 'NONE',  ( 0.0000000000000000000, -1.000000000000000000, 0.0000000000000000000 ) ) ;
#147 = ORIENTED_EDGE ( 'NONE', *, *, #145, .F. ) ;
#148 = PRODUCT_DEFINITION ( 'UNKNOWN', '', #177, #130 ) ;
#149 = AXIS2_PLACEMENT_3D ( 'NONE', #76, #6, #193 ) ;
#150 = DIRECTION ( 'NONE',  ( 1.510825004591027855E-30, 1.000000000000000000, 4.327174794786742882E-16 ) ) ;
#151 = EDGE_LOOP ( 'NONE', ( #231 ) ) ;
#152 = CC_DESIGN_APPROVAL ( #261, ( #37 ) ) ;
#153 = PERSON ( 'UNSPECIFIED', 'UNSPECIFIED', 'UNSPECIFIED', ('UNSPECIFIED'), ('UNSPECIFIED'), ('UNSPECIFIED') ) ;
#154 = FACE_OUTER_BOUND ( 'NONE', #168, .T. ) ;
#155 = ORIENTED_EDGE ( 'NONE', *, *, #45, .F. ) ;
#156 = DIRECTION ( 'NONE',  ( -3.491481338843133355E-15, 4.327174794786742882E-16, -1.000000000000000000 ) ) ;
#157 = EDGE_CURVE ( 'NONE', #189, #189, #140, .T. ) ;
#158 = CALENDAR_DATE ( 2021, 13, 10 ) ;
#159 = CARTESIAN_POINT ( 'NONE',  ( 3.581847525454398462E-14, -4.439170319624583316E-15, 10.25881904510252163 ) ) ;
#160 = VERTEX_POINT ( 'NONE', #86 ) ;
#161 = CIRCLE ( 'NONE', #42, 0.9500000000000015099 ) ;
#162 = CC_DESIGN_PERSON_AND_ORGANIZATION_ASSIGNMENT ( #176, #224, ( #105 ) ) ;
#163 = CIRCLE ( 'NONE', #44, 1.499999999999993117 ) ;
#164 = APPROVAL_STATUS ( 'not_yet_approved' ) ;
#165 = CALENDAR_DATE ( 2021, 13, 10 ) ;
#166 = AXIS2_PLACEMENT_3D ( 'NONE', #120, #2, #249 ) ;
#167 = LOCAL_TIME ( 13, 36, 42.00000000000000000, #109 ) ;
#168 = EDGE_LOOP ( 'NONE', ( #135 ) ) ;
#169 = ADVANCED_FACE ( 'NONE', ( #223, #92 ), #21, .T. ) ;
#170 = FACE_OUTER_BOUND ( 'NONE', #254, .T. ) ;
#171 = EDGE_LOOP ( 'NONE', ( #85 ) ) ;
#172 = CARTESIAN_POINT ( 'NONE',  ( 0.0000000000000000000, 0.0000000000000000000, 0.0000000000000000000 ) ) ;
#173 = DIRECTION ( 'NONE',  ( -3.491481338843133355E-15, 1.224646799147353207E-16, -1.000000000000000000 ) ) ;
#174 = APPROVAL_DATE_TIME ( #14, #119 ) ;
#175 = ORIENTED_EDGE ( 'NONE', *, *, #45, .T. ) ;
#176 = PERSON_AND_ORGANIZATION ( #153, #9 ) ;
#177 = PRODUCT_DEFINITION_FORMATION_WITH_SPECIFIED_SOURCE ( 'ANY', '', #105, .NOT_KNOWN. ) ;
#178 = DIRECTION ( 'NONE',  ( 0.0000000000000000000, 0.0000000000000000000, 1.000000000000000000 ) ) ;
#179 = SHAPE_DEFINITION_REPRESENTATION ( #116, #142 ) ;
#180 = APPLICATION_PROTOCOL_DEFINITION ( 'international standard', 'config_control_design', 1994, #4 ) ;
#181 = ADVANCED_FACE ( 'NONE', ( #170, #208 ), #31, .T. ) ;
#182 = DIRECTION ( 'NONE',  ( 0.0000000000000000000, 1.000000000000000000, 0.0000000000000000000 ) ) ;
#183 = CONICAL_SURFACE ( 'NONE', #57, 1.099999999999994760, 0.7853981633974602694 ) ;
#184 = CC_DESIGN_PERSON_AND_ORGANIZATION_ASSIGNMENT ( #52, #34, ( #177 ) ) ;
#185 = CARTESIAN_POINT ( 'NONE',  ( 3.491481338843133355E-14, 0.9499999999999987343, 10.00000000000000000 ) ) ;
#186 = CALENDAR_DATE ( 2021, 13, 10 ) ;
#187 = APPROVAL_PERSON_ORGANIZATION ( #198, #261, #212 ) ;
#188 = ORIENTED_EDGE ( 'NONE', *, *, #220, .F. ) ;
#189 = VERTEX_POINT ( 'NONE', #144 ) ;
#190 = ORIENTED_EDGE ( 'NONE', *, *, #210, .T. ) ;
#191 = CARTESIAN_POINT ( 'NONE',  ( 1.326762908760390423E-13, -4.653657836759941941E-15, 38.00000000000000000 ) ) ;
#192 = CARTESIAN_POINT ( 'NONE',  ( 2.444036937190193349E-14, -3.029022356350720412E-15, 7.000000000000000000 ) ) ;
#193 = DIRECTION ( 'NONE',  ( 0.0000000000000000000, -1.000000000000000000, 0.0000000000000000000 ) ) ;
#194 = AXIS2_PLACEMENT_3D ( 'NONE', #67, #178, #216 ) ;
#195 = ADVANCED_FACE ( 'NONE', ( #112 ), #234, .F. ) ;
#196 = AXIS2_PLACEMENT_3D ( 'NONE', #191, #173, #49 ) ;
#197 = EDGE_LOOP ( 'NONE', ( #188 ) ) ;
#198 = PERSON_AND_ORGANIZATION ( #153, #9 ) ;
#199 = CALENDAR_DATE ( 2021, 13, 10 ) ;
#200 = PLANE ( 'NONE',  #26 ) ;
#201 = CALENDAR_DATE ( 2021, 13, 10 ) ;
#202 = DIRECTION ( 'NONE',  ( 3.491481338843133355E-15, -1.224646799147353207E-16, 1.000000000000000000 ) ) ;
#203 = CARTESIAN_POINT ( 'NONE',  ( 1.312796983405018394E-13, 1.499999999999990452, 37.60000000000000853 ) ) ;
#204 = MECHANICAL_CONTEXT ( 'NONE', #248, 'mechanical' ) ;
#205 = APPROVAL_STATUS ( 'not_yet_approved' ) ;
#206 = DIRECTION ( 'NONE',  ( -3.491481338843133355E-15, 4.327174794786742882E-16, -1.000000000000000000 ) ) ;
#207 = ADVANCED_FACE ( 'NONE', ( #211, #232 ), #183, .T. ) ;
#208 = FACE_OUTER_BOUND ( 'NONE', #97, .T. ) ;
#209 = CARTESIAN_POINT ( 'NONE',  ( 1.326762908760390423E-13, -4.653657836759941941E-15, 38.00000000000000000 ) ) ;
#210 = EDGE_CURVE ( 'NONE', #84, #84, #163, .T. ) ;
#211 = FACE_OUTER_BOUND ( 'NONE', #81, .T. ) ;
#212 = APPROVAL_ROLE ( '' ) ;
#213 = TOROIDAL_SURFACE ( 'NONE', #99, 1.950000000000003286, 1.000000000000000222 ) ;
#214 = CIRCLE ( 'NONE', #196, 1.099999999999994760 ) ;
#215 = ORIENTED_EDGE ( 'NONE', *, *, #251, .T. ) ;
#216 = DIRECTION ( 'NONE',  ( 1.000000000000000000, 0.0000000000000000000, 0.0000000000000000000 ) ) ;
#217 = EDGE_LOOP ( 'NONE', ( #175 ) ) ;
#218 = CARTESIAN_POINT ( 'NONE',  ( 1.326762908760390423E-13, 1.099999999999990319, 38.00000000000000000 ) ) ;
#219 = DIRECTION ( 'NONE',  ( -3.491481338843133355E-15, 4.327174794786742882E-16, -1.000000000000000000 ) ) ;
#220 = EDGE_CURVE ( 'NONE', #61, #61, #214, .T. ) ;
#221 = CC_DESIGN_APPROVAL ( #119, ( #148 ) ) ;
#222 = DIRECTION ( 'NONE',  ( 3.491481338843133355E-15, -1.224646799147353207E-16, 1.000000000000000000 ) ) ;
#223 = FACE_OUTER_BOUND ( 'NONE', #50, .T. ) ;
#224 = PERSON_AND_ORGANIZATION_ROLE ( 'design_owner' ) ;
#225 = CARTESIAN_POINT ( 'NONE',  ( 0.0000000000000000000, 0.0000000000000000000, 0.0000000000000000000 ) ) ;
#226 = ADVANCED_FACE ( 'NONE', ( #118, #253 ), #74, .T. ) ;
#227 = DATE_AND_TIME ( #165, #167 ) ;
#228 = AXIS2_PLACEMENT_3D ( 'NONE', #225, #29, #150 ) ;
#229 = CARTESIAN_POINT ( 'NONE',  ( 3.491481338843133355E-14, -4.336808689942017736E-15, 10.00000000000000000 ) ) ;
#230 = DIRECTION ( 'NONE',  ( 0.0000000000000000000, -1.000000000000000000, 0.0000000000000000000 ) ) ;
#231 = ORIENTED_EDGE ( 'NONE', *, *, #251, .F. ) ;
#232 = FACE_BOUND ( 'NONE', #87, .T. ) ;
#233 = ORIENTED_EDGE ( 'NONE', *, *, #220, .T. ) ;
#234 = PLANE ( 'NONE',  #241 ) ;
#235 = EDGE_LOOP ( 'NONE', ( #147 ) ) ;
#236 = CIRCLE ( 'NONE', #106, 0.9500000000000015099 ) ;
#237 = CONICAL_SURFACE ( 'NONE', #259, 1.499999999999990452, 1.221730476396026610 ) ;
#238 = AXIS2_PLACEMENT_3D ( 'NONE', #159, #156, #133 ) ;
#239 = PRODUCT_RELATED_PRODUCT_CATEGORY ( 'detail', '', ( #105 ) ) ;
#240 = DIRECTION ( 'NONE',  ( -4.275831445896958607E-31, -1.000000000000000000, -1.224646799147353207E-16 ) ) ;
#241 = AXIS2_PLACEMENT_3D ( 'NONE', #47, #134, #247 ) ;
#242 = VERTEX_POINT ( 'NONE', #68 ) ;
#243 = DIRECTION ( 'NONE',  ( 4.275831445896958607E-31, 1.000000000000000000, 1.224646799147353207E-16 ) ) ;
#244 = APPROVAL_DATE_TIME ( #227, #13 ) ;
#245 = MANIFOLD_SOLID_BREP ( 'Corps-Déplacer/Copier1[1]', #107 ) ;
#246 = PERSON_AND_ORGANIZATION ( #153, #9 ) ;
#247 = DIRECTION ( 'NONE',  ( -4.275831445896958607E-31, -1.000000000000000000, -1.224646799147353207E-16 ) ) ;
#248 = APPLICATION_CONTEXT ( 'configuration controlled 3d designs of mechanical parts and assemblies' ) ;
#249 = DIRECTION ( 'NONE',  ( 4.275831445896958607E-31, 1.000000000000000000, 1.224646799147353207E-16 ) ) ;
#250 = DIRECTION ( 'NONE',  ( -3.491481338843133355E-15, 4.327174794786742882E-16, -1.000000000000000000 ) ) ;
#251 = EDGE_CURVE ( 'NONE', #160, #160, #123, .T. ) ;
#252 = ORIENTED_EDGE ( 'NONE', *, *, #101, .T. ) ;
#253 = FACE_OUTER_BOUND ( 'NONE', #8, .T. ) ;
#254 = EDGE_LOOP ( 'NONE', ( #190 ) ) ;
#255 = CARTESIAN_POINT ( 'NONE',  ( 1.906192921252225756E-15, -6.686024735685297531E-17, 0.5459553513993069540 ) ) ;
#256 = PERSON_AND_ORGANIZATION_ROLE ( 'classification_officer' ) ;
#257 = DIRECTION ( 'NONE',  ( -3.491481338843133355E-15, 1.224646799147353207E-16, -1.000000000000000000 ) ) ;
#258 = PERSON_AND_ORGANIZATION ( #153, #9 ) ;
#259 = AXIS2_PLACEMENT_3D ( 'NONE', #255, #202, #36 ) ;
#260 = ADVANCED_FACE ( 'NONE', ( #98, #10 ), #83, .T. ) ;
#261 = APPROVAL ( #103, 'UNSPECIFIED' ) ;
#262 = ADVANCED_FACE ( 'NONE', ( #154 ), #237, .T. ) ;
#263 = LOCAL_TIME ( 13, 36, 42.00000000000000000, #141 ) ;
ENDSEC;
END-ISO-10303-21;
