ISO-10303-21;
HEADER;
FILE_DESCRIPTION (( 'STEP AP203' ),
    '1' );
FILE_NAME ('976865.step',
    '2021-10-13T11:36:41',
    ( '' ),
    ( '' ),
    'SwSTEP 2.0',
    'SolidWorks 2019',
    '' );
FILE_SCHEMA (( 'CONFIG_CONTROL_DESIGN' ));
ENDSEC;

DATA;
#1 = DIRECTION ( 'NONE',  ( -3.491481338843133355E-15, 4.327174794786742882E-16, -1.000000000000000000 ) ) ;
#2 = VERTEX_POINT ( 'NONE', #74 ) ;
#3 = DIRECTION ( 'NONE',  ( -3.491481338843133355E-15, 4.327174794786742882E-16, -1.000000000000000000 ) ) ;
#4 = CC_DESIGN_APPROVAL ( #257, ( #12 ) ) ;
#5 = EDGE_CURVE ( 'NONE', #149, #149, #211, .T. ) ;
#6 = AXIS2_PLACEMENT_3D ( 'NONE', #11, #24, #109 ) ;
#7 = DIRECTION ( 'NONE',  ( 0.0000000000000000000, -1.000000000000000000, 0.0000000000000000000 ) ) ;
#8 = COORDINATED_UNIVERSAL_TIME_OFFSET ( 1, 0, .AHEAD. ) ;
#9 = PERSON_AND_ORGANIZATION ( #231, #160 ) ;
#10 = EDGE_CURVE ( 'NONE', #171, #171, #67, .T. ) ;
#11 = CARTESIAN_POINT ( 'NONE',  ( 2.444036937190193349E-14, 1.124819836996385406E-32, 7.000000000000000000 ) ) ;
#12 = SECURITY_CLASSIFICATION ( '', '', #124 ) ;
#13 = CLOSED_SHELL ( 'NONE', ( #45, #246, #85, #180, #34, #255, #56 ) ) ;
#14 = EDGE_LOOP ( 'NONE', ( #148 ) ) ;
#15 = APPROVAL ( #187, 'UNSPECIFIED' ) ;
#16 = DATE_TIME_ROLE ( 'classification_date' ) ;
#17 = CIRCLE ( 'NONE', #86, 1.499999999999993117 ) ;
#18 = APPROVAL_PERSON_ORGANIZATION ( #104, #257, #162 ) ;
#19 = ORIENTED_EDGE ( 'NONE', *, *, #123, .F. ) ;
#20 = CARTESIAN_POINT ( 'NONE',  ( 2.444036937190193349E-14, -3.029022356350720412E-15, 7.000000000000000000 ) ) ;
#21 = FACE_OUTER_BOUND ( 'NONE', #145, .T. ) ;
#22 = ORIENTED_EDGE ( 'NONE', *, *, #5, .T. ) ;
#23 = PERSON_AND_ORGANIZATION ( #231, #160 ) ;
#24 = DIRECTION ( 'NONE',  ( 3.491481338843133355E-15, -1.224646799147353207E-16, 1.000000000000000000 ) ) ;
#25 = VERTEX_POINT ( 'NONE', #108 ) ;
#26 = DIRECTION ( 'NONE',  ( 1.510825004591027855E-30, 1.000000000000000000, 4.327174794786743375E-16 ) ) ;
#27 = CARTESIAN_POINT ( 'NONE',  ( 4.319270707711436757E-14, -1.499999999999998446, 12.37088298212867699 ) ) ;
#28 = DIRECTION ( 'NONE',  ( -3.491481338843133355E-15, 1.224646799147353207E-16, -1.000000000000000000 ) ) ;
#29 = AXIS2_PLACEMENT_3D ( 'NONE', #209, #150, #224 ) ;
#30 =( NAMED_UNIT ( * ) PLANE_ANGLE_UNIT ( ) SI_UNIT ( $, .RADIAN. ) );
#31 = DIRECTION ( 'NONE',  ( 0.0000000000000000000, -1.000000000000000000, 0.0000000000000000000 ) ) ;
#32 = PLANE ( 'NONE',  #6 ) ;
#33 = CYLINDRICAL_SURFACE ( 'NONE', #157, 0.9000000000000014655 ) ;
#34 = ADVANCED_FACE ( 'NONE', ( #112, #170 ), #172, .T. ) ;
#35 = APPROVAL_ROLE ( '' ) ;
#36 = TOROIDAL_SURFACE ( 'NONE', #82, 1.900000000000003242, 1.000000000000000000 ) ;
#37 = DIRECTION ( 'NONE',  ( 0.0000000000000000000, 1.000000000000000000, 0.0000000000000000000 ) ) ;
#38 = EDGE_LOOP ( 'NONE', ( #89 ) ) ;
#39 = CC_DESIGN_PERSON_AND_ORGANIZATION_ASSIGNMENT ( #23, #169, ( #177 ) ) ;
#40 = DIRECTION ( 'NONE',  ( -3.491481338843133355E-15, 1.224646799147353207E-16, -1.000000000000000000 ) ) ;
#41 = ORIENTED_EDGE ( 'NONE', *, *, #155, .T. ) ;
#42 = CARTESIAN_POINT ( 'NONE',  ( 2.444036937190193349E-14, -0.9000000000000045741, 7.000000000000000000 ) ) ;
#43 = FACE_OUTER_BOUND ( 'NONE', #14, .T. ) ;
#44 =( NAMED_UNIT ( * ) SI_UNIT ( $, .STERADIAN. ) SOLID_ANGLE_UNIT ( ) );
#45 = ADVANCED_FACE ( 'NONE', ( #229, #248 ), #52, .T. ) ;
#46 = APPLICATION_PROTOCOL_DEFINITION ( 'international standard', 'config_control_design', 1994, #87 ) ;
#47 = MECHANICAL_CONTEXT ( 'NONE', #87, 'mechanical' ) ;
#48 = DIRECTION ( 'NONE',  ( 0.0000000000000000000, -1.000000000000000000, 0.0000000000000000000 ) ) ;
#49 = AXIS2_PLACEMENT_3D ( 'NONE', #60, #40, #179 ) ;
#50 = ORIENTED_EDGE ( 'NONE', *, *, #155, .F. ) ;
#51 = VERTEX_POINT ( 'NONE', #42 ) ;
#52 = CYLINDRICAL_SURFACE ( 'NONE', #29, 1.499999999999993117 ) ;
#53 = COORDINATED_UNIVERSAL_TIME_OFFSET ( 1, 0, .AHEAD. ) ;
#54 = LOCAL_TIME ( 13, 36, 41.00000000000000000, #237 ) ;
#55 = CC_DESIGN_APPROVAL ( #15, ( #177 ) ) ;
#56 = ADVANCED_FACE ( 'NONE', ( #129 ), #32, .F. ) ;
#57 = CIRCLE ( 'NONE', #250, 0.9000000000000014655 ) ;
#58 = DIRECTION ( 'NONE',  ( -3.491481338843133355E-15, 1.224646799147353207E-16, -1.000000000000000000 ) ) ;
#59 = EDGE_LOOP ( 'NONE', ( #134 ) ) ;
#60 = CARTESIAN_POINT ( 'NONE',  ( 1.143715752751344644E-15, -4.011614841411210073E-17, 0.3275732108395867925 ) ) ;
#61 = CARTESIAN_POINT ( 'NONE',  ( 3.491481338843133355E-14, -4.327174794786742882E-15, 10.00000000000000000 ) ) ;
#62 = CARTESIAN_POINT ( 'NONE',  ( 1.326762908760390423E-13, 8.248678804640111472E-33, 38.00000000000000000 ) ) ;
#63 = CARTESIAN_POINT ( 'NONE',  ( 4.319270707711436757E-14, -5.353097302952346495E-15, 12.37088298212867699 ) ) ;
#64 = APPLICATION_CONTEXT ( 'configuration controlled 3d designs of mechanical parts and assemblies' ) ;
#65 = ORIENTED_EDGE ( 'NONE', *, *, #242, .F. ) ;
#66 = APPROVAL_DATE_TIME ( #127, #257 ) ;
#67 = CIRCLE ( 'NONE', #226, 1.099999999999994760 ) ;
#68 = DIRECTION ( 'NONE',  ( 0.0000000000000000000, -1.000000000000000000, 0.0000000000000000000 ) ) ;
#69 = EDGE_LOOP ( 'NONE', ( #22 ) ) ;
#70 = FACE_OUTER_BOUND ( 'NONE', #254, .T. ) ;
#71 = VERTEX_POINT ( 'NONE', #27 ) ;
#72 = CARTESIAN_POINT ( 'NONE',  ( 0.0000000000000000000, 0.0000000000000000000, 0.0000000000000000000 ) ) ;
#73 = DIRECTION ( 'NONE',  ( 0.0000000000000000000, 1.000000000000000000, 0.0000000000000000000 ) ) ;
#74 = CARTESIAN_POINT ( 'NONE',  ( 1.143715752751344249E-15, -0.9000000000000014655, 0.3275732108395866815 ) ) ;
#75 = AXIS2_PLACEMENT_3D ( 'NONE', #80, #208, #116 ) ;
#76 = DIRECTION ( 'NONE',  ( -5.135813185032661930E-31, -1.000000000000000000, -1.445602896647348531E-16 ) ) ;
#77 = CARTESIAN_POINT ( 'NONE',  ( 1.312796983405018394E-13, -4.604671964794048513E-15, 37.60000000000000853 ) ) ;
#78 = EDGE_LOOP ( 'NONE', ( #247 ) ) ;
#79 = COORDINATED_UNIVERSAL_TIME_OFFSET ( 1, 0, .AHEAD. ) ;
#80 = CARTESIAN_POINT ( 'NONE',  ( 0.0000000000000000000, 0.0000000000000000000, 0.0000000000000000000 ) ) ;
#81 = EDGE_CURVE ( 'NONE', #252, #252, #57, .T. ) ;
#82 = AXIS2_PLACEMENT_3D ( 'NONE', #221, #183, #263 ) ;
#83 = PERSON_AND_ORGANIZATION ( #231, #160 ) ;
#84 = FACE_OUTER_BOUND ( 'NONE', #38, .T. ) ;
#85 = ADVANCED_FACE ( 'NONE', ( #143 ), #222, .F. ) ;
#86 = AXIS2_PLACEMENT_3D ( 'NONE', #63, #110, #48 ) ;
#87 = APPLICATION_CONTEXT ( 'configuration controlled 3d designs of mechanical parts and assemblies' ) ;
#88 = APPROVAL_PERSON_ORGANIZATION ( #164, #15, #128 ) ;
#89 = ORIENTED_EDGE ( 'NONE', *, *, #242, .T. ) ;
#90 = APPROVAL_STATUS ( 'not_yet_approved' ) ;
#91 = AXIS2_PLACEMENT_3D ( 'NONE', #217, #1, #93 ) ;
#92 =( LENGTH_UNIT ( ) NAMED_UNIT ( * ) SI_UNIT ( .MILLI., .METRE. ) );
#93 = DIRECTION ( 'NONE',  ( 0.0000000000000000000, 1.000000000000000000, 0.0000000000000000000 ) ) ;
#94 = DIRECTION ( 'NONE',  ( 3.491481338843133355E-15, -1.224646799147353207E-16, 1.000000000000000000 ) ) ;
#95 = ORIENTED_EDGE ( 'NONE', *, *, #10, .T. ) ;
#96 = CC_DESIGN_APPROVAL ( #158, ( #259 ) ) ;
#97 = CALENDAR_DATE ( 2021, 13, 10 ) ;
#98 = CALENDAR_DATE ( 2021, 13, 10 ) ;
#99 = AXIS2_PLACEMENT_3D ( 'NONE', #72, #3, #26 ) ;
#100 = PRODUCT ( '976865', '976865', '', ( #47 ) ) ;
#101 = PERSON_AND_ORGANIZATION ( #231, #160 ) ;
#102 = LOCAL_TIME ( 13, 36, 41.00000000000000000, #8 ) ;
#103 = EDGE_LOOP ( 'NONE', ( #65 ) ) ;
#104 = PERSON_AND_ORGANIZATION ( #231, #160 ) ;
#105 = PERSON_AND_ORGANIZATION_ROLE ( 'classification_officer' ) ;
#106 = AXIS2_PLACEMENT_3D ( 'NONE', #228, #94, #76 ) ;
#107 = EDGE_LOOP ( 'NONE', ( #120 ) ) ;
#108 = CARTESIAN_POINT ( 'NONE',  ( 3.581847525454398462E-14, 0.9340741737109305998, 10.25881904510252163 ) ) ;
#109 = DIRECTION ( 'NONE',  ( -4.275831445896958607E-31, -1.000000000000000000, -1.224646799147353207E-16 ) ) ;
#110 = DIRECTION ( 'NONE',  ( 3.491481338843133355E-15, -4.327174794786742882E-16, 1.000000000000000000 ) ) ;
#111 = APPLICATION_PROTOCOL_DEFINITION ( 'international standard', 'config_control_design', 1994, #64 ) ;
#112 = FACE_BOUND ( 'NONE', #103, .T. ) ;
#113 = CONICAL_SURFACE ( 'NONE', #106, 1.499999999999990452, 1.221730476396026610 ) ;
#114 = CC_DESIGN_DATE_AND_TIME_ASSIGNMENT ( #194, #16, ( #12 ) ) ;
#115 = DATE_TIME_ROLE ( 'creation_date' ) ;
#116 = DIRECTION ( 'NONE',  ( 1.000000000000000000, 0.0000000000000000000, 0.0000000000000000000 ) ) ;
#117 = CC_DESIGN_PERSON_AND_ORGANIZATION_ASSIGNMENT ( #193, #176, ( #259 ) ) ;
#118 = AXIS2_PLACEMENT_3D ( 'NONE', #62, #58, #219 ) ;
#119 = CARTESIAN_POINT ( 'NONE',  ( 0.0000000000000000000, 0.0000000000000000000, 0.0000000000000000000 ) ) ;
#120 = ORIENTED_EDGE ( 'NONE', *, *, #81, .T. ) ;
#121 = DIRECTION ( 'NONE',  ( -3.491481338843133355E-15, 4.327174794786742882E-16, -1.000000000000000000 ) ) ;
#122 = EDGE_LOOP ( 'NONE', ( #41 ) ) ;
#123 = EDGE_CURVE ( 'NONE', #51, #51, #260, .T. ) ;
#124 = SECURITY_CLASSIFICATION_LEVEL ( 'unclassified' ) ;
#125 = FACE_OUTER_BOUND ( 'NONE', #135, .T. ) ;
#126 = AXIS2_PLACEMENT_3D ( 'NONE', #77, #200, #73 ) ;
#127 = DATE_AND_TIME ( #262, #168 ) ;
#128 = APPROVAL_ROLE ( '' ) ;
#129 = FACE_OUTER_BOUND ( 'NONE', #107, .T. ) ;
#130 = CARTESIAN_POINT ( 'NONE',  ( 3.491481338843133355E-14, 0.8999999999999988010, 10.00000000000000000 ) ) ;
#131 = ORIENTED_EDGE ( 'NONE', *, *, #236, .F. ) ;
#132 = PERSON_AND_ORGANIZATION ( #231, #160 ) ;
#133 = CALENDAR_DATE ( 2021, 13, 10 ) ;
#134 = ORIENTED_EDGE ( 'NONE', *, *, #10, .F. ) ;
#135 = EDGE_LOOP ( 'NONE', ( #19 ) ) ;
#136 = DATE_AND_TIME ( #97, #102 ) ;
#137 = PRODUCT_DEFINITION_SHAPE ( 'NONE', 'NONE',  #177 ) ;
#138 = AXIS2_PLACEMENT_3D ( 'NONE', #203, #163, #7 ) ;
#139 = ADVANCED_FACE ( 'NONE', ( #153, #70 ), #33, .T. ) ;
#140 = DIRECTION ( 'NONE',  ( -3.491481338843133355E-15, 1.224646799147353207E-16, -1.000000000000000000 ) ) ;
#141 = APPROVAL_PERSON_ORGANIZATION ( #9, #158, #35 ) ;
#142 = ADVANCED_BREP_SHAPE_REPRESENTATION ( '976865', ( #244, #156, #75 ), #235 ) ;
#143 = FACE_OUTER_BOUND ( 'NONE', #59, .T. ) ;
#144 = CALENDAR_DATE ( 2021, 13, 10 ) ;
#145 = EDGE_LOOP ( 'NONE', ( #202 ) ) ;
#146 = SHAPE_DEFINITION_REPRESENTATION ( #137, #142 ) ;
#147 = CIRCLE ( 'NONE', #151, 0.9000000000000031308 ) ;
#148 = ORIENTED_EDGE ( 'NONE', *, *, #152, .T. ) ;
#149 = VERTEX_POINT ( 'NONE', #186 ) ;
#150 = DIRECTION ( 'NONE',  ( -3.491481338843133355E-15, 1.224646799147353207E-16, -1.000000000000000000 ) ) ;
#151 = AXIS2_PLACEMENT_3D ( 'NONE', #61, #121, #240 ) ;
#152 = EDGE_CURVE ( 'NONE', #227, #227, #147, .T. ) ;
#153 = FACE_OUTER_BOUND ( 'NONE', #192, .T. ) ;
#154 = DIRECTION ( 'NONE',  ( 3.491481338843133355E-15, -4.327174794786742882E-16, 1.000000000000000000 ) ) ;
#155 = EDGE_CURVE ( 'NONE', #71, #71, #17, .T. ) ;
#156 = MANIFOLD_SOLID_BREP ( 'Corps-Déplacer/Copier1[2]', #190 ) ;
#157 = AXIS2_PLACEMENT_3D ( 'NONE', #119, #256, #233 ) ;
#158 = APPROVAL ( #189, 'UNSPECIFIED' ) ;
#159 = CARTESIAN_POINT ( 'NONE',  ( 2.444036937190193349E-14, 1.124819836996385406E-32, 7.000000000000000000 ) ) ;
#160 = ORGANIZATION ( 'UNSPECIFIED', 'UNSPECIFIED', '' ) ;
#161 = DESIGN_CONTEXT ( 'detailed design', #64, 'design' ) ;
#162 = APPROVAL_ROLE ( '' ) ;
#163 = DIRECTION ( 'NONE',  ( -3.491481338843133355E-15, 1.224646799147353207E-16, -1.000000000000000000 ) ) ;
#164 = PERSON_AND_ORGANIZATION ( #231, #160 ) ;
#165 = CYLINDRICAL_SURFACE ( 'NONE', #99, 0.9000000000000014655 ) ;
#166 = ORIENTED_EDGE ( 'NONE', *, *, #236, .T. ) ;
#167 = FACE_OUTER_BOUND ( 'NONE', #195, .T. ) ;
#168 = LOCAL_TIME ( 13, 36, 41.00000000000000000, #243 ) ;
#169 = PERSON_AND_ORGANIZATION_ROLE ( 'creator' ) ;
#170 = FACE_OUTER_BOUND ( 'NONE', #230, .T. ) ;
#171 = VERTEX_POINT ( 'NONE', #201 ) ;
#172 = CONICAL_SURFACE ( 'NONE', #188, 2.000000000000000444, 0.2617993877991502960 ) ;
#173 = FACE_OUTER_BOUND ( 'NONE', #78, .T. ) ;
#174 = DATE_AND_TIME ( #98, #197 ) ;
#175 = AXIS2_PLACEMENT_3D ( 'NONE', #159, #216, #239 ) ;
#176 = PERSON_AND_ORGANIZATION_ROLE ( 'creator' ) ;
#177 = PRODUCT_DEFINITION ( 'UNKNOWN', '', #259, #161 ) ;
#178 = ORIENTED_EDGE ( 'NONE', *, *, #123, .T. ) ;
#179 = DIRECTION ( 'NONE',  ( -4.279844320860517014E-31, -1.000000000000000000, -1.204669080539447372E-16 ) ) ;
#180 = ADVANCED_FACE ( 'NONE', ( #43, #21 ), #165, .T. ) ;
#181 = DIRECTION ( 'NONE',  ( -3.491481338843133355E-15, 1.224646799147353207E-16, -1.000000000000000000 ) ) ;
#182 = FACE_OUTER_BOUND ( 'NONE', #241, .T. ) ;
#183 = DIRECTION ( 'NONE',  ( -3.491481338843133355E-15, 4.327174794786742882E-16, -1.000000000000000000 ) ) ;
#184 = AXIS2_PLACEMENT_3D ( 'NONE', #215, #140, #37 ) ;
#185 = CARTESIAN_POINT ( 'NONE',  ( 2.444036937190193349E-14, -0.9000000000000045741, 7.000000000000000000 ) ) ;
#186 = CARTESIAN_POINT ( 'NONE',  ( 1.312796983405018394E-13, 1.499999999999990452, 37.60000000000000853 ) ) ;
#187 = APPROVAL_STATUS ( 'not_yet_approved' ) ;
#188 = AXIS2_PLACEMENT_3D ( 'NONE', #253, #154, #31 ) ;
#189 = APPROVAL_STATUS ( 'not_yet_approved' ) ;
#190 = CLOSED_SHELL ( 'NONE', ( #191, #139, #210 ) ) ;
#191 = ADVANCED_FACE ( 'NONE', ( #182 ), #113, .T. ) ;
#192 = EDGE_LOOP ( 'NONE', ( #178 ) ) ;
#193 = PERSON_AND_ORGANIZATION ( #231, #160 ) ;
#194 = DATE_AND_TIME ( #144, #54 ) ;
#195 = EDGE_LOOP ( 'NONE', ( #258 ) ) ;
#196 = CIRCLE ( 'NONE', #91, 0.9340741737109350407 ) ;
#197 = LOCAL_TIME ( 13, 36, 41.00000000000000000, #53 ) ;
#198 = APPROVAL_DATE_TIME ( #136, #15 ) ;
#199 = CC_DESIGN_DATE_AND_TIME_ASSIGNMENT ( #206, #115, ( #177 ) ) ;
#200 = DIRECTION ( 'NONE',  ( -3.491481338843133355E-15, 1.224646799147353207E-16, -1.000000000000000000 ) ) ;
#201 = CARTESIAN_POINT ( 'NONE',  ( 1.326762908760390423E-13, 1.099999999999990319, 38.00000000000000000 ) ) ;
#202 = ORIENTED_EDGE ( 'NONE', *, *, #81, .F. ) ;
#203 = CARTESIAN_POINT ( 'NONE',  ( 2.444036937190193349E-14, -3.029022356350720412E-15, 7.000000000000000000 ) ) ;
#204 = PERSON_AND_ORGANIZATION_ROLE ( 'design_owner' ) ;
#205 = CARTESIAN_POINT ( 'NONE',  ( 1.326762908760390423E-13, -4.653657836759941941E-15, 38.00000000000000000 ) ) ;
#206 = DATE_AND_TIME ( #133, #212 ) ;
#207 = DIRECTION ( 'NONE',  ( 0.0000000000000000000, 1.000000000000000000, 0.0000000000000000000 ) ) ;
#208 = DIRECTION ( 'NONE',  ( 0.0000000000000000000, 0.0000000000000000000, 1.000000000000000000 ) ) ;
#209 = CARTESIAN_POINT ( 'NONE',  ( 0.0000000000000000000, 0.0000000000000000000, 0.0000000000000000000 ) ) ;
#210 = ADVANCED_FACE ( 'NONE', ( #125 ), #218, .T. ) ;
#211 = CIRCLE ( 'NONE', #126, 1.499999999999995115 ) ;
#212 = LOCAL_TIME ( 13, 36, 41.00000000000000000, #79 ) ;
#213 = PRODUCT_RELATED_PRODUCT_CATEGORY ( 'detail', '', ( #100 ) ) ;
#214 = PERSON_AND_ORGANIZATION_ROLE ( 'design_supplier' ) ;
#215 = CARTESIAN_POINT ( 'NONE',  ( 1.326762908760390423E-13, -4.653657836759941941E-15, 38.00000000000000000 ) ) ;
#216 = DIRECTION ( 'NONE',  ( 3.491481338843133355E-15, -1.224646799147353207E-16, 1.000000000000000000 ) ) ;
#217 = CARTESIAN_POINT ( 'NONE',  ( 3.581847525454398462E-14, -4.439170319624583316E-15, 10.25881904510252163 ) ) ;
#218 = PLANE ( 'NONE',  #175 ) ;
#219 = DIRECTION ( 'NONE',  ( 4.275831445896958607E-31, 1.000000000000000000, 1.224646799147353207E-16 ) ) ;
#220 = UNCERTAINTY_MEASURE_WITH_UNIT (LENGTH_MEASURE( 1.000000000000000082E-05 ), #92, 'distance_accuracy_value', 'NONE');
#221 = CARTESIAN_POINT ( 'NONE',  ( 3.491481338843133355E-14, -4.336808689942017736E-15, 10.00000000000000000 ) ) ;
#222 = PLANE ( 'NONE',  #118 ) ;
#223 = CC_DESIGN_PERSON_AND_ORGANIZATION_ASSIGNMENT ( #132, #204, ( #100 ) ) ;
#224 = DIRECTION ( 'NONE',  ( 4.275831445896958607E-31, 1.000000000000000000, 1.224646799147353207E-16 ) ) ;
#225 = EDGE_LOOP ( 'NONE', ( #95 ) ) ;
#226 = AXIS2_PLACEMENT_3D ( 'NONE', #205, #28, #207 ) ;
#227 = VERTEX_POINT ( 'NONE', #130 ) ;
#228 = CARTESIAN_POINT ( 'NONE',  ( 1.906192921252225756E-15, -6.686024735685297531E-17, 0.5459553513993069540 ) ) ;
#229 = FACE_OUTER_BOUND ( 'NONE', #122, .T. ) ;
#230 = EDGE_LOOP ( 'NONE', ( #50 ) ) ;
#231 = PERSON ( 'UNSPECIFIED', 'UNSPECIFIED', 'UNSPECIFIED', ('UNSPECIFIED'), ('UNSPECIFIED'), ('UNSPECIFIED') ) ;
#232 = CC_DESIGN_PERSON_AND_ORGANIZATION_ASSIGNMENT ( #83, #214, ( #259 ) ) ;
#233 = DIRECTION ( 'NONE',  ( 1.510825004591027855E-30, 1.000000000000000000, 4.327174794786743375E-16 ) ) ;
#234 = APPROVAL_DATE_TIME ( #174, #158 ) ;
#235 =( GEOMETRIC_REPRESENTATION_CONTEXT ( 3 ) GLOBAL_UNCERTAINTY_ASSIGNED_CONTEXT ( ( #220 ) ) GLOBAL_UNIT_ASSIGNED_CONTEXT ( ( #92, #30, #44 ) ) REPRESENTATION_CONTEXT ( 'NONE', 'WORKASPACE' ) );
#236 = EDGE_CURVE ( 'NONE', #2, #2, #245, .T. ) ;
#237 = COORDINATED_UNIVERSAL_TIME_OFFSET ( 1, 0, .AHEAD. ) ;
#238 = CONICAL_SURFACE ( 'NONE', #184, 1.099999999999994760, 0.7853981633974602694 ) ;
#239 = DIRECTION ( 'NONE',  ( -4.275831445896958607E-31, -1.000000000000000000, -1.224646799147353207E-16 ) ) ;
#240 = DIRECTION ( 'NONE',  ( 0.0000000000000000000, 1.000000000000000000, 0.0000000000000000000 ) ) ;
#241 = EDGE_LOOP ( 'NONE', ( #166 ) ) ;
#242 = EDGE_CURVE ( 'NONE', #25, #25, #196, .T. ) ;
#243 = COORDINATED_UNIVERSAL_TIME_OFFSET ( 1, 0, .AHEAD. ) ;
#244 = MANIFOLD_SOLID_BREP ( 'Corps-Déplacer/Copier1[1]', #13 ) ;
#245 = CIRCLE ( 'NONE', #49, 0.9000000000000014655 ) ;
#246 = ADVANCED_FACE ( 'NONE', ( #167, #249 ), #238, .T. ) ;
#247 = ORIENTED_EDGE ( 'NONE', *, *, #152, .F. ) ;
#248 = FACE_OUTER_BOUND ( 'NONE', #69, .T. ) ;
#249 = FACE_BOUND ( 'NONE', #225, .T. ) ;
#250 = AXIS2_PLACEMENT_3D ( 'NONE', #20, #181, #68 ) ;
#251 = CC_DESIGN_SECURITY_CLASSIFICATION ( #12, ( #259 ) ) ;
#252 = VERTEX_POINT ( 'NONE', #185 ) ;
#253 = CARTESIAN_POINT ( 'NONE',  ( 4.970789995223502418E-14, -6.160559112321133505E-15, 14.23690838591313579 ) ) ;
#254 = EDGE_LOOP ( 'NONE', ( #131 ) ) ;
#255 = ADVANCED_FACE ( 'NONE', ( #173, #84 ), #36, .F. ) ;
#256 = DIRECTION ( 'NONE',  ( -3.491481338843133355E-15, 4.327174794786742882E-16, -1.000000000000000000 ) ) ;
#257 = APPROVAL ( #90, 'UNSPECIFIED' ) ;
#258 = ORIENTED_EDGE ( 'NONE', *, *, #5, .F. ) ;
#259 = PRODUCT_DEFINITION_FORMATION_WITH_SPECIFIED_SOURCE ( 'ANY', '', #100, .NOT_KNOWN. ) ;
#260 = CIRCLE ( 'NONE', #138, 0.9000000000000014655 ) ;
#261 = CC_DESIGN_PERSON_AND_ORGANIZATION_ASSIGNMENT ( #101, #105, ( #12 ) ) ;
#262 = CALENDAR_DATE ( 2021, 13, 10 ) ;
#263 = DIRECTION ( 'NONE',  ( 1.547452996871385739E-30, 1.000000000000000000, 4.327174794786742882E-16 ) ) ;
ENDSEC;
END-ISO-10303-21;
