ISO-10303-21;
HEADER;
FILE_DESCRIPTION (( 'STEP AP203' ),
    '1' );
FILE_NAME ('976864.step',
    '2021-10-13T11:36:40',
    ( '' ),
    ( '' ),
    'SwSTEP 2.0',
    'SolidWorks 2019',
    '' );
FILE_SCHEMA (( 'CONFIG_CONTROL_DESIGN' ));
ENDSEC;

DATA;
#1 = ADVANCED_FACE ( 'NONE', ( #222 ), #199, .F. ) ;
#2 = EDGE_LOOP ( 'NONE', ( #218 ) ) ;
#3 = CARTESIAN_POINT ( 'NONE',  ( 1.312796983405018394E-13, 1.499999999999990452, 37.60000000000000853 ) ) ;
#4 = PERSON_AND_ORGANIZATION ( #100, #120 ) ;
#5 = ORIENTED_EDGE ( 'NONE', *, *, #227, .F. ) ;
#6 = DATE_TIME_ROLE ( 'creation_date' ) ;
#7 = EDGE_LOOP ( 'NONE', ( #229 ) ) ;
#8 = DESIGN_CONTEXT ( 'detailed design', #49, 'design' ) ;
#9 = AXIS2_PLACEMENT_3D ( 'NONE', #132, #51, #248 ) ;
#10 = FACE_OUTER_BOUND ( 'NONE', #234, .T. ) ;
#11 = DIRECTION ( 'NONE',  ( 4.275831445896958607E-31, 1.000000000000000000, 1.224646799147353207E-16 ) ) ;
#12 = EDGE_CURVE ( 'NONE', #231, #231, #52, .T. ) ;
#13 = CARTESIAN_POINT ( 'NONE',  ( 1.312796983405018394E-13, -4.604671964794048513E-15, 37.60000000000000853 ) ) ;
#14 = FACE_OUTER_BOUND ( 'NONE', #44, .T. ) ;
#15 = APPLICATION_PROTOCOL_DEFINITION ( 'international standard', 'config_control_design', 1994, #49 ) ;
#16 = DIRECTION ( 'NONE',  ( 0.0000000000000000000, 1.000000000000000000, 0.0000000000000000000 ) ) ;
#17 = AXIS2_PLACEMENT_3D ( 'NONE', #135, #203, #16 ) ;
#18 = AXIS2_PLACEMENT_3D ( 'NONE', #95, #200, #198 ) ;
#19 = PERSON_AND_ORGANIZATION ( #100, #120 ) ;
#20 = PRODUCT_DEFINITION_SHAPE ( 'NONE', 'NONE',  #36 ) ;
#21 = VERTEX_POINT ( 'NONE', #165 ) ;
#22 = PERSON_AND_ORGANIZATION ( #100, #120 ) ;
#23 = VERTEX_POINT ( 'NONE', #207 ) ;
#24 = APPROVAL_STATUS ( 'not_yet_approved' ) ;
#25 = ORIENTED_EDGE ( 'NONE', *, *, #12, .F. ) ;
#26 = VERTEX_POINT ( 'NONE', #230 ) ;
#27 = COORDINATED_UNIVERSAL_TIME_OFFSET ( 1, 0, .AHEAD. ) ;
#28 = AXIS2_PLACEMENT_3D ( 'NONE', #244, #163, #38 ) ;
#29 = ORIENTED_EDGE ( 'NONE', *, *, #209, .F. ) ;
#30 = DIRECTION ( 'NONE',  ( -3.491481338843133355E-15, 1.224646799147353207E-16, -1.000000000000000000 ) ) ;
#31 = FACE_OUTER_BOUND ( 'NONE', #187, .T. ) ;
#32 = ORIENTED_EDGE ( 'NONE', *, *, #93, .T. ) ;
#33 = FACE_OUTER_BOUND ( 'NONE', #71, .T. ) ;
#34 = CARTESIAN_POINT ( 'NONE',  ( 1.080175988709603285E-15, -3.788747350221698676E-17, 0.3093746991262764645 ) ) ;
#35 = AXIS2_PLACEMENT_3D ( 'NONE', #34, #241, #220 ) ;
#36 = PRODUCT_DEFINITION ( 'UNKNOWN', '', #255, #8 ) ;
#37 = APPROVAL_PERSON_ORGANIZATION ( #103, #221, #45 ) ;
#38 = DIRECTION ( 'NONE',  ( 0.0000000000000000000, 1.000000000000000000, 0.0000000000000000000 ) ) ;
#39 =( NAMED_UNIT ( * ) PLANE_ANGLE_UNIT ( ) SI_UNIT ( $, .RADIAN. ) );
#40 = APPROVAL_PERSON_ORGANIZATION ( #85, #140, #250 ) ;
#41 = LOCAL_TIME ( 13, 36, 40.00000000000000000, #118 ) ;
#42 = DATE_TIME_ROLE ( 'classification_date' ) ;
#43 = EDGE_CURVE ( 'NONE', #26, #26, #176, .T. ) ;
#44 = EDGE_LOOP ( 'NONE', ( #252 ) ) ;
#45 = APPROVAL_ROLE ( '' ) ;
#46 = CIRCLE ( 'NONE', #148, 1.499999999999995115 ) ;
#47 = CARTESIAN_POINT ( 'NONE',  ( 5.035941923974709426E-14, -6.241305293258011812E-15, 14.42351092629158060 ) ) ;
#48 = ADVANCED_FACE ( 'NONE', ( #99 ), #139, .T. ) ;
#49 = APPLICATION_CONTEXT ( 'configuration controlled 3d designs of mechanical parts and assemblies' ) ;
#50 = EDGE_LOOP ( 'NONE', ( #124 ) ) ;
#51 = DIRECTION ( 'NONE',  ( -3.491481338843133355E-15, 1.224646799147353207E-16, -1.000000000000000000 ) ) ;
#52 = CIRCLE ( 'NONE', #204, 1.499999999999993117 ) ;
#53 = FACE_OUTER_BOUND ( 'NONE', #175, .T. ) ;
#54 = CYLINDRICAL_SURFACE ( 'NONE', #133, 0.8500000000000014211 ) ;
#55 = FACE_OUTER_BOUND ( 'NONE', #237, .T. ) ;
#56 = DIRECTION ( 'NONE',  ( 3.491481338843133355E-15, -4.327174794786742882E-16, 1.000000000000000000 ) ) ;
#57 = ADVANCED_FACE ( 'NONE', ( #61, #136 ), #115, .F. ) ;
#58 = CARTESIAN_POINT ( 'NONE',  ( 1.906192921252225756E-15, -6.686024735685297531E-17, 0.5459553513993069540 ) ) ;
#59 = FACE_OUTER_BOUND ( 'NONE', #87, .T. ) ;
#60 = EDGE_CURVE ( 'NONE', #82, #82, #216, .T. ) ;
#61 = FACE_OUTER_BOUND ( 'NONE', #194, .T. ) ;
#62 = MANIFOLD_SOLID_BREP ( 'Corps-Déplacer/Copier1[1]', #195 ) ;
#63 = CIRCLE ( 'NONE', #35, 0.8500000000000014211 ) ;
#64 = CC_DESIGN_APPROVAL ( #149, ( #247 ) ) ;
#65 = EDGE_LOOP ( 'NONE', ( #213 ) ) ;
#66 = DATE_AND_TIME ( #249, #160 ) ;
#67 = ADVANCED_FACE ( 'NONE', ( #74, #53 ), #156, .T. ) ;
#68 = PRODUCT ( '976864', '976864', '', ( #239 ) ) ;
#69 = LOCAL_TIME ( 13, 36, 40.00000000000000000, #27 ) ;
#70 = APPROVAL_DATE_TIME ( #72, #140 ) ;
#71 = EDGE_LOOP ( 'NONE', ( #105 ) ) ;
#72 = DATE_AND_TIME ( #106, #69 ) ;
#73 = DIRECTION ( 'NONE',  ( 3.491481338843133355E-15, -1.224646799147353207E-16, 1.000000000000000000 ) ) ;
#74 = FACE_OUTER_BOUND ( 'NONE', #65, .T. ) ;
#75 = FACE_BOUND ( 'NONE', #147, .T. ) ;
#76 = AXIS2_PLACEMENT_3D ( 'NONE', #219, #131, #236 ) ;
#77 = CONICAL_SURFACE ( 'NONE', #159, 2.000000000000000444, 0.2617993877991502960 ) ;
#78 = DIRECTION ( 'NONE',  ( -5.135813185032661930E-31, -1.000000000000000000, -1.445602896647348531E-16 ) ) ;
#79 = DIRECTION ( 'NONE',  ( 3.491481338843133355E-15, -1.224646799147353207E-16, 1.000000000000000000 ) ) ;
#80 = AXIS2_PLACEMENT_3D ( 'NONE', #178, #73, #114 ) ;
#81 = CC_DESIGN_DATE_AND_TIME_ASSIGNMENT ( #66, #42, ( #247 ) ) ;
#82 = VERTEX_POINT ( 'NONE', #144 ) ;
#83 = PERSON_AND_ORGANIZATION_ROLE ( 'classification_officer' ) ;
#84 = COORDINATED_UNIVERSAL_TIME_OFFSET ( 1, 0, .AHEAD. ) ;
#85 = PERSON_AND_ORGANIZATION ( #100, #120 ) ;
#86 = CC_DESIGN_PERSON_AND_ORGANIZATION_ASSIGNMENT ( #173, #150, ( #68 ) ) ;
#87 = EDGE_LOOP ( 'NONE', ( #215 ) ) ;
#88 = VERTEX_POINT ( 'NONE', #3 ) ;
#89 = PERSON_AND_ORGANIZATION_ROLE ( 'creator' ) ;
#90 = EDGE_LOOP ( 'NONE', ( #210 ) ) ;
#91 = CARTESIAN_POINT ( 'NONE',  ( 0.0000000000000000000, 0.0000000000000000000, 0.0000000000000000000 ) ) ;
#92 = AXIS2_PLACEMENT_3D ( 'NONE', #185, #188, #217 ) ;
#93 = EDGE_CURVE ( 'NONE', #21, #21, #254, .T. ) ;
#94 = ORIENTED_EDGE ( 'NONE', *, *, #43, .F. ) ;
#95 = CARTESIAN_POINT ( 'NONE',  ( 0.0000000000000000000, 0.0000000000000000000, 0.0000000000000000000 ) ) ;
#96 = DIRECTION ( 'NONE',  ( -3.491481338843133355E-15, 1.224646799147353207E-16, -1.000000000000000000 ) ) ;
#97 = CYLINDRICAL_SURFACE ( 'NONE', #164, 1.499999999999993117 ) ;
#98 = DIRECTION ( 'NONE',  ( -3.491481338843133355E-15, 1.224646799147353207E-16, -1.000000000000000000 ) ) ;
#99 = FACE_OUTER_BOUND ( 'NONE', #7, .T. ) ;
#100 = PERSON ( 'UNSPECIFIED', 'UNSPECIFIED', 'UNSPECIFIED', ('UNSPECIFIED'), ('UNSPECIFIED'), ('UNSPECIFIED') ) ;
#101 = EDGE_CURVE ( 'NONE', #104, #104, #63, .T. ) ;
#102 = CARTESIAN_POINT ( 'NONE',  ( 2.444036937190193349E-14, 1.124819836996385406E-32, 7.000000000000000000 ) ) ;
#103 = PERSON_AND_ORGANIZATION ( #100, #120 ) ;
#104 = VERTEX_POINT ( 'NONE', #225 ) ;
#105 = ORIENTED_EDGE ( 'NONE', *, *, #12, .T. ) ;
#106 = CALENDAR_DATE ( 2021, 13, 10 ) ;
#107 = AXIS2_PLACEMENT_3D ( 'NONE', #111, #98, #238 ) ;
#108 = UNCERTAINTY_MEASURE_WITH_UNIT (LENGTH_MEASURE( 1.000000000000000082E-05 ), #253, 'distance_accuracy_value', 'NONE');
#109 = ADVANCED_FACE ( 'NONE', ( #55 ), #152, .F. ) ;
#110 = DIRECTION ( 'NONE',  ( 0.0000000000000000000, 1.000000000000000000, 0.0000000000000000000 ) ) ;
#111 = CARTESIAN_POINT ( 'NONE',  ( 2.444036937190193349E-14, -3.029022356350720412E-15, 7.000000000000000000 ) ) ;
#112 = DIRECTION ( 'NONE',  ( -3.491481338843133355E-15, 4.327174794786742882E-16, -1.000000000000000000 ) ) ;
#113 = AXIS2_PLACEMENT_3D ( 'NONE', #102, #79, #162 ) ;
#114 = DIRECTION ( 'NONE',  ( -4.275831445896958607E-31, -1.000000000000000000, -1.224646799147353207E-16 ) ) ;
#115 = TOROIDAL_SURFACE ( 'NONE', #245, 1.850000000000003197, 1.000000000000000000 ) ;
#116 = APPROVAL_STATUS ( 'not_yet_approved' ) ;
#117 = CARTESIAN_POINT ( 'NONE',  ( 3.491481338843133355E-14, -4.336808689942017736E-15, 10.00000000000000000 ) ) ;
#118 = COORDINATED_UNIVERSAL_TIME_OFFSET ( 1, 0, .AHEAD. ) ;
#119 = CC_DESIGN_PERSON_AND_ORGANIZATION_ASSIGNMENT ( #226, #83, ( #247 ) ) ;
#120 = ORGANIZATION ( 'UNSPECIFIED', 'UNSPECIFIED', '' ) ;
#121 = COORDINATED_UNIVERSAL_TIME_OFFSET ( 1, 0, .AHEAD. ) ;
#122 = EDGE_LOOP ( 'NONE', ( #167 ) ) ;
#123 = CARTESIAN_POINT ( 'NONE',  ( 4.384422636462642502E-14, -1.499999999999998446, 12.55748552250712180 ) ) ;
#124 = ORIENTED_EDGE ( 'NONE', *, *, #43, .T. ) ;
#125 = AXIS2_PLACEMENT_3D ( 'NONE', #129, #96, #154 ) ;
#126 = LOCAL_TIME ( 13, 36, 40.00000000000000000, #84 ) ;
#127 = DIRECTION ( 'NONE',  ( 1.510825004591027855E-30, 1.000000000000000000, 4.327174794786743375E-16 ) ) ;
#128 = CARTESIAN_POINT ( 'NONE',  ( 1.326762908760390423E-13, -4.653657836759941941E-15, 38.00000000000000000 ) ) ;
#129 = CARTESIAN_POINT ( 'NONE',  ( 2.444036937190193349E-14, -3.029022356350720412E-15, 7.000000000000000000 ) ) ;
#130 = LOCAL_TIME ( 13, 36, 40.00000000000000000, #121 ) ;
#131 = DIRECTION ( 'NONE',  ( -3.491481338843133355E-15, 1.224646799147353207E-16, -1.000000000000000000 ) ) ;
#132 = CARTESIAN_POINT ( 'NONE',  ( 1.326762908760390423E-13, -4.653657836759941941E-15, 38.00000000000000000 ) ) ;
#133 = AXIS2_PLACEMENT_3D ( 'NONE', #91, #112, #127 ) ;
#134 = ADVANCED_FACE ( 'NONE', ( #33, #14 ), #97, .T. ) ;
#135 = CARTESIAN_POINT ( 'NONE',  ( 3.581847525454398462E-14, -4.439170319624583316E-15, 10.25881904510252163 ) ) ;
#136 = FACE_OUTER_BOUND ( 'NONE', #50, .T. ) ;
#137 = CIRCLE ( 'NONE', #28, 0.8500000000000029754 ) ;
#138 = CC_DESIGN_SECURITY_CLASSIFICATION ( #247, ( #255 ) ) ;
#139 = PLANE ( 'NONE',  #113 ) ;
#140 = APPROVAL ( #24, 'UNSPECIFIED' ) ;
#141 = SECURITY_CLASSIFICATION_LEVEL ( 'unclassified' ) ;
#142 = CC_DESIGN_PERSON_AND_ORGANIZATION_ASSIGNMENT ( #19, #89, ( #255 ) ) ;
#143 = AXIS2_PLACEMENT_3D ( 'NONE', #128, #30, #110 ) ;
#144 = CARTESIAN_POINT ( 'NONE',  ( 2.444036937190193349E-14, -0.8500000000000045297, 7.000000000000000000 ) ) ;
#145 = EDGE_LOOP ( 'NONE', ( #32 ) ) ;
#146 = APPLICATION_PROTOCOL_DEFINITION ( 'international standard', 'config_control_design', 1994, #171 ) ;
#147 = EDGE_LOOP ( 'NONE', ( #94 ) ) ;
#148 = AXIS2_PLACEMENT_3D ( 'NONE', #13, #155, #157 ) ;
#149 = APPROVAL ( #116, 'UNSPECIFIED' ) ;
#150 = PERSON_AND_ORGANIZATION_ROLE ( 'design_owner' ) ;
#151 = ADVANCED_BREP_SHAPE_REPRESENTATION ( '976864', ( #62, #240, #92 ), #208 ) ;
#152 = PLANE ( 'NONE',  #76 ) ;
#153 = DIRECTION ( 'NONE',  ( 0.0000000000000000000, -1.000000000000000000, 0.0000000000000000000 ) ) ;
#154 = DIRECTION ( 'NONE',  ( 0.0000000000000000000, -1.000000000000000000, 0.0000000000000000000 ) ) ;
#155 = DIRECTION ( 'NONE',  ( -3.491481338843133355E-15, 1.224646799147353207E-16, -1.000000000000000000 ) ) ;
#156 = CYLINDRICAL_SURFACE ( 'NONE', #18, 0.8500000000000014211 ) ;
#157 = DIRECTION ( 'NONE',  ( 0.0000000000000000000, 1.000000000000000000, 0.0000000000000000000 ) ) ;
#158 = PRODUCT_RELATED_PRODUCT_CATEGORY ( 'detail', '', ( #68 ) ) ;
#159 = AXIS2_PLACEMENT_3D ( 'NONE', #47, #56, #153 ) ;
#160 = LOCAL_TIME ( 13, 36, 40.00000000000000000, #166 ) ;
#161 = FACE_OUTER_BOUND ( 'NONE', #145, .T. ) ;
#162 = DIRECTION ( 'NONE',  ( -4.275831445896958607E-31, -1.000000000000000000, -1.224646799147353207E-16 ) ) ;
#163 = DIRECTION ( 'NONE',  ( -3.491481338843133355E-15, 4.327174794786742882E-16, -1.000000000000000000 ) ) ;
#164 = AXIS2_PLACEMENT_3D ( 'NONE', #256, #242, #11 ) ;
#165 = CARTESIAN_POINT ( 'NONE',  ( 2.444036937190193349E-14, -0.8500000000000045297, 7.000000000000000000 ) ) ;
#166 = COORDINATED_UNIVERSAL_TIME_OFFSET ( 1, 0, .AHEAD. ) ;
#167 = ORIENTED_EDGE ( 'NONE', *, *, #181, .T. ) ;
#168 = CALENDAR_DATE ( 2021, 13, 10 ) ;
#169 = ORIENTED_EDGE ( 'NONE', *, *, #60, .F. ) ;
#170 = PERSON_AND_ORGANIZATION_ROLE ( 'design_supplier' ) ;
#171 = APPLICATION_CONTEXT ( 'configuration controlled 3d designs of mechanical parts and assemblies' ) ;
#172 = CC_DESIGN_PERSON_AND_ORGANIZATION_ASSIGNMENT ( #4, #170, ( #255 ) ) ;
#173 = PERSON_AND_ORGANIZATION ( #100, #120 ) ;
#174 = FACE_BOUND ( 'NONE', #122, .T. ) ;
#175 = EDGE_LOOP ( 'NONE', ( #169 ) ) ;
#176 = CIRCLE ( 'NONE', #17, 0.8840741737109349963 ) ;
#177 = CC_DESIGN_APPROVAL ( #140, ( #36 ) ) ;
#178 = CARTESIAN_POINT ( 'NONE',  ( 2.444036937190193349E-14, 1.124819836996385406E-32, 7.000000000000000000 ) ) ;
#179 = ADVANCED_FACE ( 'NONE', ( #75, #31 ), #77, .T. ) ;
#180 = APPROVAL_ROLE ( '' ) ;
#181 = EDGE_CURVE ( 'NONE', #211, #211, #184, .T. ) ;
#182 = DIRECTION ( 'NONE',  ( 3.491481338843133355E-15, -4.327174794786742882E-16, 1.000000000000000000 ) ) ;
#183 = SHAPE_DEFINITION_REPRESENTATION ( #20, #151 ) ;
#184 = CIRCLE ( 'NONE', #143, 1.099999999999994760 ) ;
#185 = CARTESIAN_POINT ( 'NONE',  ( 0.0000000000000000000, 0.0000000000000000000, 0.0000000000000000000 ) ) ;
#186 = APPROVAL_DATE_TIME ( #212, #221 ) ;
#187 = EDGE_LOOP ( 'NONE', ( #25 ) ) ;
#188 = DIRECTION ( 'NONE',  ( 0.0000000000000000000, 0.0000000000000000000, 1.000000000000000000 ) ) ;
#189 = APPROVAL_STATUS ( 'not_yet_approved' ) ;
#190 = CARTESIAN_POINT ( 'NONE',  ( 1.326762908760390423E-13, 1.099999999999990319, 38.00000000000000000 ) ) ;
#191 = PERSON_AND_ORGANIZATION ( #100, #120 ) ;
#192 =( NAMED_UNIT ( * ) SI_UNIT ( $, .STERADIAN. ) SOLID_ANGLE_UNIT ( ) );
#193 = DATE_AND_TIME ( #228, #126 ) ;
#194 = EDGE_LOOP ( 'NONE', ( #29 ) ) ;
#195 = CLOSED_SHELL ( 'NONE', ( #134, #196, #109, #67, #179, #57, #1 ) ) ;
#196 = ADVANCED_FACE ( 'NONE', ( #10, #174 ), #201, .T. ) ;
#197 = DIRECTION ( 'NONE',  ( 1.548095593227181319E-30, 1.000000000000000000, 4.327174794786742389E-16 ) ) ;
#198 = DIRECTION ( 'NONE',  ( 1.510825004591027855E-30, 1.000000000000000000, 4.327174794786743375E-16 ) ) ;
#199 = PLANE ( 'NONE',  #80 ) ;
#200 = DIRECTION ( 'NONE',  ( -3.491481338843133355E-15, 4.327174794786742882E-16, -1.000000000000000000 ) ) ;
#201 = CONICAL_SURFACE ( 'NONE', #9, 1.099999999999994760, 0.7853981633974602694 ) ;
#202 = APPROVAL_PERSON_ORGANIZATION ( #22, #149, #180 ) ;
#203 = DIRECTION ( 'NONE',  ( -3.491481338843133355E-15, 4.327174794786742882E-16, -1.000000000000000000 ) ) ;
#204 = AXIS2_PLACEMENT_3D ( 'NONE', #260, #182, #243 ) ;
#205 = CALENDAR_DATE ( 2021, 13, 10 ) ;
#206 = FACE_OUTER_BOUND ( 'NONE', #2, .T. ) ;
#207 = CARTESIAN_POINT ( 'NONE',  ( 3.491481338843133355E-14, 0.8499999999999986455, 10.00000000000000000 ) ) ;
#208 =( GEOMETRIC_REPRESENTATION_CONTEXT ( 3 ) GLOBAL_UNCERTAINTY_ASSIGNED_CONTEXT ( ( #108 ) ) GLOBAL_UNIT_ASSIGNED_CONTEXT ( ( #253, #39, #192 ) ) REPRESENTATION_CONTEXT ( 'NONE', 'WORKASPACE' ) );
#209 = EDGE_CURVE ( 'NONE', #23, #23, #137, .T. ) ;
#210 = ORIENTED_EDGE ( 'NONE', *, *, #60, .T. ) ;
#211 = VERTEX_POINT ( 'NONE', #190 ) ;
#212 = DATE_AND_TIME ( #168, #130 ) ;
#213 = ORIENTED_EDGE ( 'NONE', *, *, #209, .T. ) ;
#214 = CC_DESIGN_PERSON_AND_ORGANIZATION_ASSIGNMENT ( #191, #232, ( #36 ) ) ;
#215 = ORIENTED_EDGE ( 'NONE', *, *, #101, .F. ) ;
#216 = CIRCLE ( 'NONE', #107, 0.8500000000000014211 ) ;
#217 = DIRECTION ( 'NONE',  ( 1.000000000000000000, 0.0000000000000000000, 0.0000000000000000000 ) ) ;
#218 = ORIENTED_EDGE ( 'NONE', *, *, #101, .T. ) ;
#219 = CARTESIAN_POINT ( 'NONE',  ( 1.326762908760390423E-13, 8.248678804640111472E-33, 38.00000000000000000 ) ) ;
#220 = DIRECTION ( 'NONE',  ( -4.531599869146429522E-31, -1.000000000000000000, -1.275531967630003027E-16 ) ) ;
#221 = APPROVAL ( #189, 'UNSPECIFIED' ) ;
#222 = FACE_OUTER_BOUND ( 'NONE', #90, .T. ) ;
#223 = DIRECTION ( 'NONE',  ( 3.491481338843133355E-15, -1.224646799147353207E-16, 1.000000000000000000 ) ) ;
#224 = ADVANCED_FACE ( 'NONE', ( #206 ), #235, .T. ) ;
#225 = CARTESIAN_POINT ( 'NONE',  ( 1.080175988709602891E-15, -0.8500000000000014211, 0.3093746991262763535 ) ) ;
#226 = PERSON_AND_ORGANIZATION ( #100, #120 ) ;
#227 = EDGE_CURVE ( 'NONE', #88, #88, #46, .T. ) ;
#228 = CALENDAR_DATE ( 2021, 13, 10 ) ;
#229 = ORIENTED_EDGE ( 'NONE', *, *, #93, .F. ) ;
#230 = CARTESIAN_POINT ( 'NONE',  ( 3.581847525454398462E-14, 0.8840741737109305554, 10.25881904510252163 ) ) ;
#231 = VERTEX_POINT ( 'NONE', #123 ) ;
#232 = PERSON_AND_ORGANIZATION_ROLE ( 'creator' ) ;
#233 = ORIENTED_EDGE ( 'NONE', *, *, #181, .F. ) ;
#234 = EDGE_LOOP ( 'NONE', ( #5 ) ) ;
#235 = CONICAL_SURFACE ( 'NONE', #263, 1.499999999999990452, 1.221730476396026610 ) ;
#236 = DIRECTION ( 'NONE',  ( 4.275831445896958607E-31, 1.000000000000000000, 1.224646799147353207E-16 ) ) ;
#237 = EDGE_LOOP ( 'NONE', ( #233 ) ) ;
#238 = DIRECTION ( 'NONE',  ( 0.0000000000000000000, -1.000000000000000000, 0.0000000000000000000 ) ) ;
#239 = MECHANICAL_CONTEXT ( 'NONE', #171, 'mechanical' ) ;
#240 = MANIFOLD_SOLID_BREP ( 'Corps-Déplacer/Copier1[2]', #251 ) ;
#241 = DIRECTION ( 'NONE',  ( -3.491481338843133355E-15, 1.224646799147353207E-16, -1.000000000000000000 ) ) ;
#242 = DIRECTION ( 'NONE',  ( -3.491481338843133355E-15, 1.224646799147353207E-16, -1.000000000000000000 ) ) ;
#243 = DIRECTION ( 'NONE',  ( 0.0000000000000000000, -1.000000000000000000, 0.0000000000000000000 ) ) ;
#244 = CARTESIAN_POINT ( 'NONE',  ( 3.491481338843133355E-14, -4.327174794786742882E-15, 10.00000000000000000 ) ) ;
#245 = AXIS2_PLACEMENT_3D ( 'NONE', #117, #262, #197 ) ;
#246 = DATE_AND_TIME ( #205, #41 ) ;
#247 = SECURITY_CLASSIFICATION ( '', '', #141 ) ;
#248 = DIRECTION ( 'NONE',  ( 0.0000000000000000000, 1.000000000000000000, 0.0000000000000000000 ) ) ;
#249 = CALENDAR_DATE ( 2021, 13, 10 ) ;
#250 = APPROVAL_ROLE ( '' ) ;
#251 = CLOSED_SHELL ( 'NONE', ( #224, #258, #48 ) ) ;
#252 = ORIENTED_EDGE ( 'NONE', *, *, #227, .T. ) ;
#253 =( LENGTH_UNIT ( ) NAMED_UNIT ( * ) SI_UNIT ( .MILLI., .METRE. ) );
#254 = CIRCLE ( 'NONE', #125, 0.8500000000000014211 ) ;
#255 = PRODUCT_DEFINITION_FORMATION_WITH_SPECIFIED_SOURCE ( 'ANY', '', #68, .NOT_KNOWN. ) ;
#256 = CARTESIAN_POINT ( 'NONE',  ( 0.0000000000000000000, 0.0000000000000000000, 0.0000000000000000000 ) ) ;
#257 = CC_DESIGN_APPROVAL ( #221, ( #255 ) ) ;
#258 = ADVANCED_FACE ( 'NONE', ( #161, #59 ), #54, .T. ) ;
#259 = APPROVAL_DATE_TIME ( #246, #149 ) ;
#260 = CARTESIAN_POINT ( 'NONE',  ( 4.384422636462642502E-14, -5.433843483889224802E-15, 12.55748552250712180 ) ) ;
#261 = CC_DESIGN_DATE_AND_TIME_ASSIGNMENT ( #193, #6, ( #36 ) ) ;
#262 = DIRECTION ( 'NONE',  ( -3.491481338843133355E-15, 4.327174794786742882E-16, -1.000000000000000000 ) ) ;
#263 = AXIS2_PLACEMENT_3D ( 'NONE', #58, #223, #78 ) ;
ENDSEC;
END-ISO-10303-21;
