ISO-10303-21;
HEADER;
FILE_DESCRIPTION (( 'STEP AP203' ),
    '1' );
FILE_NAME ('976863.step',
    '2021-10-13T11:36:39',
    ( '' ),
    ( '' ),
    'SwSTEP 2.0',
    'SolidWorks 2019',
    '' );
FILE_SCHEMA (( 'CONFIG_CONTROL_DESIGN' ));
ENDSEC;

DATA;
#1 = APPROVAL_ROLE ( '' ) ;
#2 = CARTESIAN_POINT ( 'NONE',  ( 1.326762908760390423E-13, -4.653657836759941941E-15, 38.00000000000000000 ) ) ;
#3 = DIRECTION ( 'NONE',  ( -3.491481338843133355E-15, 4.327174794786742882E-16, -1.000000000000000000 ) ) ;
#4 = DIRECTION ( 'NONE',  ( 3.491481338843133355E-15, -1.224646799147353207E-16, 1.000000000000000000 ) ) ;
#5 = DIRECTION ( 'NONE',  ( 1.548761139452827204E-30, 1.000000000000000000, 4.327174794786742882E-16 ) ) ;
#6 = CARTESIAN_POINT ( 'NONE',  ( 3.491481338843133355E-14, 0.7999999999999988232, 10.00000000000000000 ) ) ;
#7 = ADVANCED_FACE ( 'NONE', ( #220 ), #200, .F. ) ;
#8 = COORDINATED_UNIVERSAL_TIME_OFFSET ( 1, 0, .AHEAD. ) ;
#9 = AXIS2_PLACEMENT_3D ( 'NONE', #75, #158, #63 ) ;
#10 = APPROVAL ( #260, 'UNSPECIFIED' ) ;
#11 = CARTESIAN_POINT ( 'NONE',  ( 4.449574565213847617E-14, -1.499999999999998446, 12.74408806288556129 ) ) ;
#12 = VERTEX_POINT ( 'NONE', #6 ) ;
#13 = ORIENTED_EDGE ( 'NONE', *, *, #61, .F. ) ;
#14 = CALENDAR_DATE ( 2021, 13, 10 ) ;
#15 = FACE_BOUND ( 'NONE', #97, .T. ) ;
#16 = MANIFOLD_SOLID_BREP ( 'Corps-Déplacer/Copier1[1]', #211 ) ;
#17 = AXIS2_PLACEMENT_3D ( 'NONE', #210, #82, #168 ) ;
#18 = PRODUCT_DEFINITION_SHAPE ( 'NONE', 'NONE',  #57 ) ;
#19 = FACE_OUTER_BOUND ( 'NONE', #157, .T. ) ;
#20 = CC_DESIGN_PERSON_AND_ORGANIZATION_ASSIGNMENT ( #134, #98, ( #256 ) ) ;
#21 = CONICAL_SURFACE ( 'NONE', #229, 1.099999999999994760, 0.7853981633974602694 ) ;
#22 = FACE_OUTER_BOUND ( 'NONE', #38, .T. ) ;
#23 = ADVANCED_BREP_SHAPE_REPRESENTATION ( '976863', ( #16, #182, #49 ), #261 ) ;
#24 = LOCAL_TIME ( 13, 36, 39.00000000000000000, #153 ) ;
#25 = CARTESIAN_POINT ( 'NONE',  ( 1.016636224667862125E-15, -3.565879859032187896E-17, 0.2911761874129661365 ) ) ;
#26 = CYLINDRICAL_SURFACE ( 'NONE', #104, 0.8000000000000017097 ) ;
#27 = DIRECTION ( 'NONE',  ( 4.275831445896958607E-31, 1.000000000000000000, 1.224646799147353207E-16 ) ) ;
#28 = APPROVAL_DATE_TIME ( #221, #83 ) ;
#29 = DIRECTION ( 'NONE',  ( -3.491481338843133355E-15, 1.224646799147353207E-16, -1.000000000000000000 ) ) ;
#30 = MECHANICAL_CONTEXT ( 'NONE', #241, 'mechanical' ) ;
#31 = FACE_OUTER_BOUND ( 'NONE', #78, .T. ) ;
#32 = APPROVAL_PERSON_ORGANIZATION ( #100, #10, #141 ) ;
#33 = PERSON_AND_ORGANIZATION ( #254, #34 ) ;
#34 = ORGANIZATION ( 'UNSPECIFIED', 'UNSPECIFIED', '' ) ;
#35 = AXIS2_PLACEMENT_3D ( 'NONE', #125, #4, #194 ) ;
#36 = CIRCLE ( 'NONE', #17, 1.499999999999993117 ) ;
#37 = ADVANCED_FACE ( 'NONE', ( #74, #103 ), #240, .F. ) ;
#38 = EDGE_LOOP ( 'NONE', ( #165 ) ) ;
#39 = EDGE_CURVE ( 'NONE', #122, #122, #172, .T. ) ;
#40 = CYLINDRICAL_SURFACE ( 'NONE', #222, 1.499999999999993117 ) ;
#41 = DIRECTION ( 'NONE',  ( -3.491481338843133355E-15, 4.327174794786742882E-16, -1.000000000000000000 ) ) ;
#42 = CIRCLE ( 'NONE', #249, 0.8000000000000031530 ) ;
#43 = DATE_AND_TIME ( #191, #129 ) ;
#44 = DIRECTION ( 'NONE',  ( -3.491481338843133355E-15, 1.224646799147353207E-16, -1.000000000000000000 ) ) ;
#45 = ADVANCED_FACE ( 'NONE', ( #177, #31 ), #26, .T. ) ;
#46 = CYLINDRICAL_SURFACE ( 'NONE', #192, 0.8000000000000017097 ) ;
#47 = ORIENTED_EDGE ( 'NONE', *, *, #39, .F. ) ;
#48 = APPROVAL_STATUS ( 'not_yet_approved' ) ;
#49 = AXIS2_PLACEMENT_3D ( 'NONE', #137, #159, #185 ) ;
#50 = ORIENTED_EDGE ( 'NONE', *, *, #156, .F. ) ;
#51 = VERTEX_POINT ( 'NONE', #96 ) ;
#52 = ORIENTED_EDGE ( 'NONE', *, *, #88, .F. ) ;
#53 = AXIS2_PLACEMENT_3D ( 'NONE', #175, #73, #181 ) ;
#54 = EDGE_LOOP ( 'NONE', ( #56 ) ) ;
#55 = EDGE_CURVE ( 'NONE', #66, #66, #118, .T. ) ;
#56 = ORIENTED_EDGE ( 'NONE', *, *, #243, .T. ) ;
#57 = PRODUCT_DEFINITION ( 'UNKNOWN', '', #256, #91 ) ;
#58 = AXIS2_PLACEMENT_3D ( 'NONE', #193, #166, #257 ) ;
#59 = APPLICATION_CONTEXT ( 'configuration controlled 3d designs of mechanical parts and assemblies' ) ;
#60 = DIRECTION ( 'NONE',  ( -4.275831445896958607E-31, -1.000000000000000000, -1.224646799147353207E-16 ) ) ;
#61 = EDGE_CURVE ( 'NONE', #133, #133, #262, .T. ) ;
#62 = CARTESIAN_POINT ( 'NONE',  ( 2.444036937190193349E-14, -0.8000000000000047073, 7.000000000000000000 ) ) ;
#63 = DIRECTION ( 'NONE',  ( 0.0000000000000000000, 1.000000000000000000, 0.0000000000000000000 ) ) ;
#64 = CIRCLE ( 'NONE', #186, 1.499999999999995115 ) ;
#65 = VERTEX_POINT ( 'NONE', #232 ) ;
#66 = VERTEX_POINT ( 'NONE', #62 ) ;
#67 = DATE_TIME_ROLE ( 'creation_date' ) ;
#68 = PLANE ( 'NONE',  #123 ) ;
#69 = AXIS2_PLACEMENT_3D ( 'NONE', #107, #244, #84 ) ;
#70 = ORIENTED_EDGE ( 'NONE', *, *, #160, .T. ) ;
#71 = CIRCLE ( 'NONE', #180, 0.8340741737109348408 ) ;
#72 = PERSON_AND_ORGANIZATION ( #254, #34 ) ;
#73 = DIRECTION ( 'NONE',  ( -3.491481338843133355E-15, 1.224646799147353207E-16, -1.000000000000000000 ) ) ;
#74 = FACE_OUTER_BOUND ( 'NONE', #143, .T. ) ;
#75 = CARTESIAN_POINT ( 'NONE',  ( 1.326762908760390423E-13, -4.653657836759941941E-15, 38.00000000000000000 ) ) ;
#76 = ADVANCED_FACE ( 'NONE', ( #128, #228 ), #46, .T. ) ;
#77 = CARTESIAN_POINT ( 'NONE',  ( 2.444036937190193349E-14, -0.8000000000000047073, 7.000000000000000000 ) ) ;
#78 = EDGE_LOOP ( 'NONE', ( #50 ) ) ;
#79 = CALENDAR_DATE ( 2021, 13, 10 ) ;
#80 = EDGE_LOOP ( 'NONE', ( #47 ) ) ;
#81 = ORIENTED_EDGE ( 'NONE', *, *, #55, .T. ) ;
#82 = DIRECTION ( 'NONE',  ( 3.491481338843133355E-15, -4.327174794786742882E-16, 1.000000000000000000 ) ) ;
#83 = APPROVAL ( #248, 'UNSPECIFIED' ) ;
#84 = DIRECTION ( 'NONE',  ( -5.135813185032661930E-31, -1.000000000000000000, -1.445602896647348531E-16 ) ) ;
#85 = CALENDAR_DATE ( 2021, 13, 10 ) ;
#86 = FACE_OUTER_BOUND ( 'NONE', #225, .T. ) ;
#87 = CARTESIAN_POINT ( 'NONE',  ( 0.0000000000000000000, 0.0000000000000000000, 0.0000000000000000000 ) ) ;
#88 = EDGE_CURVE ( 'NONE', #65, #65, #64, .T. ) ;
#89 = PLANE ( 'NONE',  #35 ) ;
#90 = DIRECTION ( 'NONE',  ( 1.510825004591027679E-30, 1.000000000000000000, 4.327174794786742389E-16 ) ) ;
#91 = DESIGN_CONTEXT ( 'detailed design', #59, 'design' ) ;
#92 = VERTEX_POINT ( 'NONE', #11 ) ;
#93 = APPROVAL_ROLE ( '' ) ;
#94 = PERSON_AND_ORGANIZATION_ROLE ( 'creator' ) ;
#95 = ADVANCED_FACE ( 'NONE', ( #15, #19 ), #234, .T. ) ;
#96 = CARTESIAN_POINT ( 'NONE',  ( 3.581847525454398462E-14, 0.8340741737109303999, 10.25881904510252163 ) ) ;
#97 = EDGE_LOOP ( 'NONE', ( #252 ) ) ;
#98 = PERSON_AND_ORGANIZATION_ROLE ( 'design_supplier' ) ;
#99 = APPROVAL_PERSON_ORGANIZATION ( #33, #120, #93 ) ;
#100 = PERSON_AND_ORGANIZATION ( #254, #34 ) ;
#101 = UNCERTAINTY_MEASURE_WITH_UNIT (LENGTH_MEASURE( 1.000000000000000082E-05 ), #201, 'distance_accuracy_value', 'NONE');
#102 = DIRECTION ( 'NONE',  ( 0.0000000000000000000, 1.000000000000000000, 0.0000000000000000000 ) ) ;
#103 = FACE_OUTER_BOUND ( 'NONE', #54, .T. ) ;
#104 = AXIS2_PLACEMENT_3D ( 'NONE', #87, #3, #90 ) ;
#105 = PRODUCT ( '976863', '976863', '', ( #30 ) ) ;
#106 = DATE_TIME_ROLE ( 'classification_date' ) ;
#107 = CARTESIAN_POINT ( 'NONE',  ( 1.906192921252225756E-15, -6.686024735685297531E-17, 0.5459553513993069540 ) ) ;
#108 = CARTESIAN_POINT ( 'NONE',  ( 2.444036937190193349E-14, -3.029022356350720412E-15, 7.000000000000000000 ) ) ;
#109 = LOCAL_TIME ( 13, 36, 39.00000000000000000, #148 ) ;
#110 = VERTEX_POINT ( 'NONE', #236 ) ;
#111 = CARTESIAN_POINT ( 'NONE',  ( 0.0000000000000000000, 0.0000000000000000000, 0.0000000000000000000 ) ) ;
#112 = EDGE_CURVE ( 'NONE', #92, #92, #36, .T. ) ;
#113 = ORIENTED_EDGE ( 'NONE', *, *, #55, .F. ) ;
#114 = CONICAL_SURFACE ( 'NONE', #69, 1.499999999999990452, 1.221730476396026610 ) ;
#115 = CC_DESIGN_APPROVAL ( #83, ( #216 ) ) ;
#116 = CARTESIAN_POINT ( 'NONE',  ( 1.312796983405018394E-13, -4.604671964794048513E-15, 37.60000000000000853 ) ) ;
#117 = ADVANCED_FACE ( 'NONE', ( #259 ), #68, .T. ) ;
#118 = CIRCLE ( 'NONE', #53, 0.8000000000000017097 ) ;
#119 = CC_DESIGN_DATE_AND_TIME_ASSIGNMENT ( #173, #106, ( #216 ) ) ;
#120 = APPROVAL ( #48, 'UNSPECIFIED' ) ;
#121 = DIRECTION ( 'NONE',  ( -3.491481338843133355E-15, 1.224646799147353207E-16, -1.000000000000000000 ) ) ;
#122 = VERTEX_POINT ( 'NONE', #77 ) ;
#123 = AXIS2_PLACEMENT_3D ( 'NONE', #140, #238, #60 ) ;
#124 = APPROVAL_PERSON_ORGANIZATION ( #72, #83, #1 ) ;
#125 = CARTESIAN_POINT ( 'NONE',  ( 2.444036937190193349E-14, 1.124819836996385406E-32, 7.000000000000000000 ) ) ;
#126 = ORIENTED_EDGE ( 'NONE', *, *, #112, .T. ) ;
#127 =( NAMED_UNIT ( * ) PLANE_ANGLE_UNIT ( ) SI_UNIT ( $, .RADIAN. ) );
#128 = FACE_OUTER_BOUND ( 'NONE', #245, .T. ) ;
#129 = LOCAL_TIME ( 13, 36, 39.00000000000000000, #214 ) ;
#130 = PERSON_AND_ORGANIZATION_ROLE ( 'design_owner' ) ;
#131 = DIRECTION ( 'NONE',  ( -3.491481338843133355E-15, 1.224646799147353207E-16, -1.000000000000000000 ) ) ;
#132 = APPROVAL_DATE_TIME ( #162, #120 ) ;
#133 = VERTEX_POINT ( 'NONE', #204 ) ;
#134 = PERSON_AND_ORGANIZATION ( #254, #34 ) ;
#135 = EDGE_LOOP ( 'NONE', ( #13 ) ) ;
#136 = LOCAL_TIME ( 13, 36, 39.00000000000000000, #215 ) ;
#137 = CARTESIAN_POINT ( 'NONE',  ( 0.0000000000000000000, 0.0000000000000000000, 0.0000000000000000000 ) ) ;
#138 = EDGE_LOOP ( 'NONE', ( #81 ) ) ;
#139 = ORIENTED_EDGE ( 'NONE', *, *, #61, .T. ) ;
#140 = CARTESIAN_POINT ( 'NONE',  ( 2.444036937190193349E-14, 1.124819836996385406E-32, 7.000000000000000000 ) ) ;
#141 = APPROVAL_ROLE ( '' ) ;
#142 = AXIS2_PLACEMENT_3D ( 'NONE', #226, #29, #27 ) ;
#143 = EDGE_LOOP ( 'NONE', ( #235 ) ) ;
#144 = EDGE_LOOP ( 'NONE', ( #126 ) ) ;
#145 = CARTESIAN_POINT ( 'NONE',  ( 3.491481338843133355E-14, -4.327174794786742882E-15, 10.00000000000000000 ) ) ;
#146 = AXIS2_PLACEMENT_3D ( 'NONE', #108, #202, #198 ) ;
#147 = ADVANCED_FACE ( 'NONE', ( #22 ), #89, .F. ) ;
#148 = COORDINATED_UNIVERSAL_TIME_OFFSET ( 1, 0, .AHEAD. ) ;
#149 = CARTESIAN_POINT ( 'NONE',  ( 0.0000000000000000000, 0.0000000000000000000, 0.0000000000000000000 ) ) ;
#150 = ORIENTED_EDGE ( 'NONE', *, *, #88, .T. ) ;
#151 = SHAPE_DEFINITION_REPRESENTATION ( #18, #23 ) ;
#152 = DIRECTION ( 'NONE',  ( 0.0000000000000000000, 1.000000000000000000, 0.0000000000000000000 ) ) ;
#153 = COORDINATED_UNIVERSAL_TIME_OFFSET ( 1, 0, .AHEAD. ) ;
#154 = DIRECTION ( 'NONE',  ( 4.275831445896958607E-31, 1.000000000000000000, 1.224646799147353207E-16 ) ) ;
#155 = DIRECTION ( 'NONE',  ( 0.0000000000000000000, 1.000000000000000000, 0.0000000000000000000 ) ) ;
#156 = EDGE_CURVE ( 'NONE', #110, #110, #161, .T. ) ;
#157 = EDGE_LOOP ( 'NONE', ( #213 ) ) ;
#158 = DIRECTION ( 'NONE',  ( -3.491481338843133355E-15, 1.224646799147353207E-16, -1.000000000000000000 ) ) ;
#159 = DIRECTION ( 'NONE',  ( 0.0000000000000000000, 0.0000000000000000000, 1.000000000000000000 ) ) ;
#160 = EDGE_CURVE ( 'NONE', #12, #12, #42, .T. ) ;
#161 = CIRCLE ( 'NONE', #199, 0.8000000000000017097 ) ;
#162 = DATE_AND_TIME ( #79, #169 ) ;
#163 = DIRECTION ( 'NONE',  ( 0.0000000000000000000, 1.000000000000000000, 0.0000000000000000000 ) ) ;
#164 = PERSON_AND_ORGANIZATION ( #254, #34 ) ;
#165 = ORIENTED_EDGE ( 'NONE', *, *, #39, .T. ) ;
#166 = DIRECTION ( 'NONE',  ( 3.491481338843133355E-15, -4.327174794786742882E-16, 1.000000000000000000 ) ) ;
#167 = PERSON_AND_ORGANIZATION ( #254, #34 ) ;
#168 = DIRECTION ( 'NONE',  ( 0.0000000000000000000, -1.000000000000000000, 0.0000000000000000000 ) ) ;
#169 = LOCAL_TIME ( 13, 36, 39.00000000000000000, #8 ) ;
#170 = CC_DESIGN_DATE_AND_TIME_ASSIGNMENT ( #212, #67, ( #57 ) ) ;
#171 = CC_DESIGN_APPROVAL ( #10, ( #256 ) ) ;
#172 = CIRCLE ( 'NONE', #146, 0.8000000000000017097 ) ;
#173 = DATE_AND_TIME ( #85, #24 ) ;
#174 = FACE_BOUND ( 'NONE', #206, .T. ) ;
#175 = CARTESIAN_POINT ( 'NONE',  ( 2.444036937190193349E-14, -3.029022356350720412E-15, 7.000000000000000000 ) ) ;
#176 = DIRECTION ( 'NONE',  ( -4.814824860968079123E-31, -1.000000000000000000, -1.355252715606877584E-16 ) ) ;
#177 = FACE_OUTER_BOUND ( 'NONE', #138, .T. ) ;
#178 = CC_DESIGN_PERSON_AND_ORGANIZATION_ASSIGNMENT ( #183, #130, ( #105 ) ) ;
#179 = CARTESIAN_POINT ( 'NONE',  ( 3.491481338843133355E-14, -4.336808689942017736E-15, 10.00000000000000000 ) ) ;
#180 = AXIS2_PLACEMENT_3D ( 'NONE', #219, #250, #102 ) ;
#181 = DIRECTION ( 'NONE',  ( 0.0000000000000000000, -1.000000000000000000, 0.0000000000000000000 ) ) ;
#182 = MANIFOLD_SOLID_BREP ( 'Corps-Déplacer/Copier1[2]', #189 ) ;
#183 = PERSON_AND_ORGANIZATION ( #254, #34 ) ;
#184 = ADVANCED_FACE ( 'NONE', ( #197 ), #114, .T. ) ;
#185 = DIRECTION ( 'NONE',  ( 1.000000000000000000, 0.0000000000000000000, 0.0000000000000000000 ) ) ;
#186 = AXIS2_PLACEMENT_3D ( 'NONE', #116, #131, #163 ) ;
#187 = CC_DESIGN_PERSON_AND_ORGANIZATION_ASSIGNMENT ( #209, #94, ( #256 ) ) ;
#188 = SECURITY_CLASSIFICATION_LEVEL ( 'unclassified' ) ;
#189 = CLOSED_SHELL ( 'NONE', ( #184, #45, #117 ) ) ;
#190 = CC_DESIGN_SECURITY_CLASSIFICATION ( #216, ( #256 ) ) ;
#191 = CALENDAR_DATE ( 2021, 13, 10 ) ;
#192 = AXIS2_PLACEMENT_3D ( 'NONE', #111, #203, #237 ) ;
#193 = CARTESIAN_POINT ( 'NONE',  ( 5.101093852725914541E-14, -6.322051474194888541E-15, 14.61011346667002364 ) ) ;
#194 = DIRECTION ( 'NONE',  ( -4.275831445896958607E-31, -1.000000000000000000, -1.224646799147353207E-16 ) ) ;
#195 = PERSON_AND_ORGANIZATION_ROLE ( 'classification_officer' ) ;
#196 = EDGE_LOOP ( 'NONE', ( #150 ) ) ;
#197 = FACE_OUTER_BOUND ( 'NONE', #242, .T. ) ;
#198 = DIRECTION ( 'NONE',  ( 0.0000000000000000000, -1.000000000000000000, 0.0000000000000000000 ) ) ;
#199 = AXIS2_PLACEMENT_3D ( 'NONE', #25, #121, #176 ) ;
#200 = PLANE ( 'NONE',  #142 ) ;
#201 =( LENGTH_UNIT ( ) NAMED_UNIT ( * ) SI_UNIT ( .MILLI., .METRE. ) );
#202 = DIRECTION ( 'NONE',  ( -3.491481338843133355E-15, 1.224646799147353207E-16, -1.000000000000000000 ) ) ;
#203 = DIRECTION ( 'NONE',  ( -3.491481338843133355E-15, 4.327174794786742882E-16, -1.000000000000000000 ) ) ;
#204 = CARTESIAN_POINT ( 'NONE',  ( 1.326762908760390423E-13, 1.099999999999990319, 38.00000000000000000 ) ) ;
#205 = CC_DESIGN_APPROVAL ( #120, ( #57 ) ) ;
#206 = EDGE_LOOP ( 'NONE', ( #139 ) ) ;
#207 =( NAMED_UNIT ( * ) SI_UNIT ( $, .STERADIAN. ) SOLID_ANGLE_UNIT ( ) );
#208 = ADVANCED_FACE ( 'NONE', ( #218, #263 ), #40, .T. ) ;
#209 = PERSON_AND_ORGANIZATION ( #254, #34 ) ;
#210 = CARTESIAN_POINT ( 'NONE',  ( 4.449574565213847617E-14, -5.514589664826101531E-15, 12.74408806288556129 ) ) ;
#211 = CLOSED_SHELL ( 'NONE', ( #208, #258, #7, #76, #95, #37, #147 ) ) ;
#212 = DATE_AND_TIME ( #14, #136 ) ;
#213 = ORIENTED_EDGE ( 'NONE', *, *, #112, .F. ) ;
#214 = COORDINATED_UNIVERSAL_TIME_OFFSET ( 1, 0, .AHEAD. ) ;
#215 = COORDINATED_UNIVERSAL_TIME_OFFSET ( 1, 0, .AHEAD. ) ;
#216 = SECURITY_CLASSIFICATION ( '', '', #188 ) ;
#217 = PRODUCT_RELATED_PRODUCT_CATEGORY ( 'detail', '', ( #105 ) ) ;
#218 = FACE_OUTER_BOUND ( 'NONE', #144, .T. ) ;
#219 = CARTESIAN_POINT ( 'NONE',  ( 3.581847525454398462E-14, -4.439170319624583316E-15, 10.25881904510252163 ) ) ;
#220 = FACE_OUTER_BOUND ( 'NONE', #135, .T. ) ;
#221 = DATE_AND_TIME ( #223, #109 ) ;
#222 = AXIS2_PLACEMENT_3D ( 'NONE', #149, #246, #154 ) ;
#223 = CALENDAR_DATE ( 2021, 13, 10 ) ;
#224 = DIRECTION ( 'NONE',  ( -3.491481338843133355E-15, 4.327174794786742882E-16, -1.000000000000000000 ) ) ;
#225 = EDGE_LOOP ( 'NONE', ( #52 ) ) ;
#226 = CARTESIAN_POINT ( 'NONE',  ( 1.326762908760390423E-13, 8.248678804640111472E-33, 38.00000000000000000 ) ) ;
#227 = APPLICATION_PROTOCOL_DEFINITION ( 'international standard', 'config_control_design', 1994, #241 ) ;
#228 = FACE_OUTER_BOUND ( 'NONE', #80, .T. ) ;
#229 = AXIS2_PLACEMENT_3D ( 'NONE', #2, #44, #152 ) ;
#230 = APPLICATION_PROTOCOL_DEFINITION ( 'international standard', 'config_control_design', 1994, #59 ) ;
#231 = PERSON_AND_ORGANIZATION_ROLE ( 'creator' ) ;
#232 = CARTESIAN_POINT ( 'NONE',  ( 1.312796983405018394E-13, 1.499999999999990452, 37.60000000000000853 ) ) ;
#233 = CC_DESIGN_PERSON_AND_ORGANIZATION_ASSIGNMENT ( #167, #195, ( #216 ) ) ;
#234 = CONICAL_SURFACE ( 'NONE', #58, 2.000000000000000888, 0.2617993877991504625 ) ;
#235 = ORIENTED_EDGE ( 'NONE', *, *, #160, .F. ) ;
#236 = CARTESIAN_POINT ( 'NONE',  ( 1.016636224667861730E-15, -0.8000000000000017097, 0.2911761874129660255 ) ) ;
#237 = DIRECTION ( 'NONE',  ( 1.510825004591027679E-30, 1.000000000000000000, 4.327174794786742389E-16 ) ) ;
#238 = DIRECTION ( 'NONE',  ( 3.491481338843133355E-15, -1.224646799147353207E-16, 1.000000000000000000 ) ) ;
#239 = ORIENTED_EDGE ( 'NONE', *, *, #156, .T. ) ;
#240 = TOROIDAL_SURFACE ( 'NONE', #253, 1.800000000000002931, 1.000000000000000000 ) ;
#241 = APPLICATION_CONTEXT ( 'configuration controlled 3d designs of mechanical parts and assemblies' ) ;
#242 = EDGE_LOOP ( 'NONE', ( #239 ) ) ;
#243 = EDGE_CURVE ( 'NONE', #51, #51, #71, .T. ) ;
#244 = DIRECTION ( 'NONE',  ( 3.491481338843133355E-15, -1.224646799147353207E-16, 1.000000000000000000 ) ) ;
#245 = EDGE_LOOP ( 'NONE', ( #70 ) ) ;
#246 = DIRECTION ( 'NONE',  ( -3.491481338843133355E-15, 1.224646799147353207E-16, -1.000000000000000000 ) ) ;
#247 = CC_DESIGN_PERSON_AND_ORGANIZATION_ASSIGNMENT ( #164, #231, ( #57 ) ) ;
#248 = APPROVAL_STATUS ( 'not_yet_approved' ) ;
#249 = AXIS2_PLACEMENT_3D ( 'NONE', #145, #224, #155 ) ;
#250 = DIRECTION ( 'NONE',  ( -3.491481338843133355E-15, 4.327174794786742882E-16, -1.000000000000000000 ) ) ;
#251 = EDGE_LOOP ( 'NONE', ( #113 ) ) ;
#252 = ORIENTED_EDGE ( 'NONE', *, *, #243, .F. ) ;
#253 = AXIS2_PLACEMENT_3D ( 'NONE', #179, #41, #5 ) ;
#254 = PERSON ( 'UNSPECIFIED', 'UNSPECIFIED', 'UNSPECIFIED', ('UNSPECIFIED'), ('UNSPECIFIED'), ('UNSPECIFIED') ) ;
#255 = APPROVAL_DATE_TIME ( #43, #10 ) ;
#256 = PRODUCT_DEFINITION_FORMATION_WITH_SPECIFIED_SOURCE ( 'ANY', '', #105, .NOT_KNOWN. ) ;
#257 = DIRECTION ( 'NONE',  ( 0.0000000000000000000, -1.000000000000000000, 0.0000000000000000000 ) ) ;
#258 = ADVANCED_FACE ( 'NONE', ( #86, #174 ), #21, .T. ) ;
#259 = FACE_OUTER_BOUND ( 'NONE', #251, .T. ) ;
#260 = APPROVAL_STATUS ( 'not_yet_approved' ) ;
#261 =( GEOMETRIC_REPRESENTATION_CONTEXT ( 3 ) GLOBAL_UNCERTAINTY_ASSIGNED_CONTEXT ( ( #101 ) ) GLOBAL_UNIT_ASSIGNED_CONTEXT ( ( #201, #127, #207 ) ) REPRESENTATION_CONTEXT ( 'NONE', 'WORKASPACE' ) );
#262 = CIRCLE ( 'NONE', #9, 1.099999999999994760 ) ;
#263 = FACE_OUTER_BOUND ( 'NONE', #196, .T. ) ;
ENDSEC;
END-ISO-10303-21;
