ISO-10303-21;
HEADER;
FILE_DESCRIPTION (( 'STEP AP203' ),
    '1' );
FILE_NAME ('976862.step',
    '2021-10-13T11:36:39',
    ( '' ),
    ( '' ),
    'SwSTEP 2.0',
    'SolidWorks 2019',
    '' );
FILE_SCHEMA (( 'CONFIG_CONTROL_DESIGN' ));
ENDSEC;

DATA;
#1 = CARTESIAN_POINT ( 'NONE',  ( 0.0000000000000000000, 0.0000000000000000000, 0.0000000000000000000 ) ) ;
#2 = CARTESIAN_POINT ( 'NONE',  ( 0.0000000000000000000, 0.0000000000000000000, 0.0000000000000000000 ) ) ;
#3 = CIRCLE ( 'NONE', #8, 0.7500000000000015543 ) ;
#4 = DIRECTION ( 'NONE',  ( 0.0000000000000000000, -1.000000000000000000, 0.0000000000000000000 ) ) ;
#5 = ORIENTED_EDGE ( 'NONE', *, *, #36, .F. ) ;
#6 = VERTEX_POINT ( 'NONE', #167 ) ;
#7 = ORIENTED_EDGE ( 'NONE', *, *, #11, .T. ) ;
#8 = AXIS2_PLACEMENT_3D ( 'NONE', #79, #230, #189 ) ;
#9 = PLANE ( 'NONE',  #235 ) ;
#10 = CARTESIAN_POINT ( 'NONE',  ( 3.581847525454397200E-14, 0.7840741737109302445, 10.25881904510251807 ) ) ;
#11 = EDGE_CURVE ( 'NONE', #130, #130, #161, .T. ) ;
#12 = DIRECTION ( 'NONE',  ( 3.491481338843133355E-15, -1.224646799147353207E-16, 1.000000000000000000 ) ) ;
#13 = VERTEX_POINT ( 'NONE', #166 ) ;
#14 = LOCAL_TIME ( 13, 36, 39.00000000000000000, #55 ) ;
#15 = DIRECTION ( 'NONE',  ( 1.000000000000000000, 0.0000000000000000000, 0.0000000000000000000 ) ) ;
#16 = MANIFOLD_SOLID_BREP ( 'Corps-Déplacer/Copier1[2]', #19 ) ;
#17 = CC_DESIGN_PERSON_AND_ORGANIZATION_ASSIGNMENT ( #168, #192, ( #186 ) ) ;
#18 = PERSON_AND_ORGANIZATION ( #220, #147 ) ;
#19 = CLOSED_SHELL ( 'NONE', ( #253, #92, #63 ) ) ;
#20 = APPROVAL_DATE_TIME ( #119, #73 ) ;
#21 = EDGE_LOOP ( 'NONE', ( #247 ) ) ;
#22 = APPROVAL_ROLE ( '' ) ;
#23 = DIRECTION ( 'NONE',  ( 0.0000000000000000000, -1.000000000000000000, 0.0000000000000000000 ) ) ;
#24 = AXIS2_PLACEMENT_3D ( 'NONE', #254, #258, #23 ) ;
#25 = CYLINDRICAL_SURFACE ( 'NONE', #225, 0.7500000000000015543 ) ;
#26 = ADVANCED_FACE ( 'NONE', ( #218, #205 ), #88, .T. ) ;
#27 = ORIENTED_EDGE ( 'NONE', *, *, #187, .T. ) ;
#28 = DIRECTION ( 'NONE',  ( 1.510825004591027855E-30, 1.000000000000000000, 4.327174794786742882E-16 ) ) ;
#29 = CIRCLE ( 'NONE', #178, 1.499999999999993117 ) ;
#30 = UNCERTAINTY_MEASURE_WITH_UNIT (LENGTH_MEASURE( 1.000000000000000082E-05 ), #211, 'distance_accuracy_value', 'NONE');
#31 = DIRECTION ( 'NONE',  ( 1.549450887359405228E-30, 1.000000000000000000, 4.327174794786742882E-16 ) ) ;
#32 = ORIENTED_EDGE ( 'NONE', *, *, #223, .F. ) ;
#33 = APPROVAL ( #136, 'UNSPECIFIED' ) ;
#34 = VERTEX_POINT ( 'NONE', #10 ) ;
#35 = DIRECTION ( 'NONE',  ( -3.491481338843133355E-15, 4.327174794786742882E-16, -1.000000000000000000 ) ) ;
#36 = EDGE_CURVE ( 'NONE', #34, #34, #105, .T. ) ;
#37 =( NAMED_UNIT ( * ) PLANE_ANGLE_UNIT ( ) SI_UNIT ( $, .RADIAN. ) );
#38 = LOCAL_TIME ( 13, 36, 39.00000000000000000, #100 ) ;
#39 = DIRECTION ( 'NONE',  ( -3.491481338843133355E-15, 4.327174794786742882E-16, -1.000000000000000000 ) ) ;
#40 = SHAPE_DEFINITION_REPRESENTATION ( #234, #164 ) ;
#41 = PERSON_AND_ORGANIZATION_ROLE ( 'design_owner' ) ;
#42 = APPROVAL_PERSON_ORGANIZATION ( #18, #67, #198 ) ;
#43 = PERSON_AND_ORGANIZATION ( #220, #147 ) ;
#44 = DIRECTION ( 'NONE',  ( 3.491481338843133355E-15, -4.327174794786742882E-16, 1.000000000000000000 ) ) ;
#45 = CYLINDRICAL_SURFACE ( 'NONE', #53, 0.7500000000000015543 ) ;
#46 = ORIENTED_EDGE ( 'NONE', *, *, #201, .T. ) ;
#47 = PRODUCT_DEFINITION ( 'UNKNOWN', '', #186, #153 ) ;
#48 = EDGE_LOOP ( 'NONE', ( #32 ) ) ;
#49 = FACE_OUTER_BOUND ( 'NONE', #48, .T. ) ;
#50 = LOCAL_TIME ( 13, 36, 39.00000000000000000, #194 ) ;
#51 = ORIENTED_EDGE ( 'NONE', *, *, #103, .F. ) ;
#52 = CARTESIAN_POINT ( 'NONE',  ( 9.530964606261207664E-16, -3.343012367842675883E-17, 0.2729776756996557530 ) ) ;
#53 = AXIS2_PLACEMENT_3D ( 'NONE', #118, #217, #151 ) ;
#54 = VERTEX_POINT ( 'NONE', #129 ) ;
#55 = COORDINATED_UNIVERSAL_TIME_OFFSET ( 1, 0, .AHEAD. ) ;
#56 = CARTESIAN_POINT ( 'NONE',  ( 1.312796983405018394E-13, -4.604671964794048513E-15, 37.60000000000000853 ) ) ;
#57 = CALENDAR_DATE ( 2021, 13, 10 ) ;
#58 = FACE_OUTER_BOUND ( 'NONE', #176, .T. ) ;
#59 = CARTESIAN_POINT ( 'NONE',  ( 2.444036937190193349E-14, 1.124819836996385406E-32, 7.000000000000000000 ) ) ;
#60 = PLANE ( 'NONE',  #90 ) ;
#61 = DIRECTION ( 'NONE',  ( 0.0000000000000000000, 1.000000000000000000, 0.0000000000000000000 ) ) ;
#62 = FACE_OUTER_BOUND ( 'NONE', #107, .T. ) ;
#63 = ADVANCED_FACE ( 'NONE', ( #252 ), #229, .T. ) ;
#64 = DIRECTION ( 'NONE',  ( -3.491481338843133355E-15, 4.327174794786742882E-16, -1.000000000000000000 ) ) ;
#65 = PERSON_AND_ORGANIZATION ( #220, #147 ) ;
#66 = CLOSED_SHELL ( 'NONE', ( #137, #85, #182, #76, #26, #146, #206 ) ) ;
#67 = APPROVAL ( #150, 'UNSPECIFIED' ) ;
#68 = CALENDAR_DATE ( 2021, 13, 10 ) ;
#69 = EDGE_LOOP ( 'NONE', ( #185 ) ) ;
#70 = CARTESIAN_POINT ( 'NONE',  ( 3.581847525454397200E-14, -4.439170319624581738E-15, 10.25881904510251807 ) ) ;
#71 = FACE_OUTER_BOUND ( 'NONE', #124, .T. ) ;
#72 = EDGE_LOOP ( 'NONE', ( #5 ) ) ;
#73 = APPROVAL ( #196, 'UNSPECIFIED' ) ;
#74 = FACE_OUTER_BOUND ( 'NONE', #21, .T. ) ;
#75 = DIRECTION ( 'NONE',  ( 0.0000000000000000000, 1.000000000000000000, 0.0000000000000000000 ) ) ;
#76 = ADVANCED_FACE ( 'NONE', ( #62, #74 ), #25, .T. ) ;
#77 = CC_DESIGN_APPROVAL ( #33, ( #114 ) ) ;
#78 = EDGE_LOOP ( 'NONE', ( #224 ) ) ;
#79 = CARTESIAN_POINT ( 'NONE',  ( 2.444036937190193349E-14, -3.029022356350720412E-15, 7.000000000000000000 ) ) ;
#80 = CARTESIAN_POINT ( 'NONE',  ( 3.491481338843132724E-14, -4.336808689942017736E-15, 9.999999999999998224 ) ) ;
#81 = VERTEX_POINT ( 'NONE', #145 ) ;
#82 = LOCAL_TIME ( 13, 36, 39.00000000000000000, #117 ) ;
#83 = MECHANICAL_CONTEXT ( 'NONE', #148, 'mechanical' ) ;
#84 = PERSON_AND_ORGANIZATION_ROLE ( 'creator' ) ;
#85 = ADVANCED_FACE ( 'NONE', ( #104, #158 ), #242, .T. ) ;
#86 = CALENDAR_DATE ( 2021, 13, 10 ) ;
#87 =( NAMED_UNIT ( * ) SI_UNIT ( $, .STERADIAN. ) SOLID_ANGLE_UNIT ( ) );
#88 = CONICAL_SURFACE ( 'NONE', #109, 2.000000000000000888, 0.2617993877991505181 ) ;
#89 = DIRECTION ( 'NONE',  ( -3.491481338843133355E-15, 1.224646799147353207E-16, -1.000000000000000000 ) ) ;
#90 = AXIS2_PLACEMENT_3D ( 'NONE', #172, #156, #199 ) ;
#91 = DIRECTION ( 'NONE',  ( -3.491481338843133355E-15, 1.224646799147353207E-16, -1.000000000000000000 ) ) ;
#92 = ADVANCED_FACE ( 'NONE', ( #71, #49 ), #45, .T. ) ;
#93 = EDGE_LOOP ( 'NONE', ( #226 ) ) ;
#94 = CIRCLE ( 'NONE', #24, 0.7500000000000015543 ) ;
#95 = FACE_OUTER_BOUND ( 'NONE', #93, .T. ) ;
#96 = AXIS2_PLACEMENT_3D ( 'NONE', #56, #133, #61 ) ;
#97 = APPROVAL_DATE_TIME ( #243, #33 ) ;
#98 = SECURITY_CLASSIFICATION_LEVEL ( 'unclassified' ) ;
#99 = DATE_AND_TIME ( #68, #143 ) ;
#100 = COORDINATED_UNIVERSAL_TIME_OFFSET ( 1, 0, .AHEAD. ) ;
#101 = CIRCLE ( 'NONE', #200, 1.099999999999994760 ) ;
#102 = EDGE_LOOP ( 'NONE', ( #27 ) ) ;
#103 = EDGE_CURVE ( 'NONE', #13, #13, #29, .T. ) ;
#104 = FACE_OUTER_BOUND ( 'NONE', #139, .T. ) ;
#105 = CIRCLE ( 'NONE', #131, 0.7840741737109346854 ) ;
#106 = CC_DESIGN_PERSON_AND_ORGANIZATION_ASSIGNMENT ( #65, #84, ( #47 ) ) ;
#107 = EDGE_LOOP ( 'NONE', ( #46 ) ) ;
#108 = CC_DESIGN_PERSON_AND_ORGANIZATION_ASSIGNMENT ( #120, #41, ( #122 ) ) ;
#109 = AXIS2_PLACEMENT_3D ( 'NONE', #157, #140, #4 ) ;
#110 = DIRECTION ( 'NONE',  ( 0.0000000000000000000, 1.000000000000000000, 0.0000000000000000000 ) ) ;
#111 = CARTESIAN_POINT ( 'NONE',  ( 2.444036937190193349E-14, 1.124819836996385406E-32, 7.000000000000000000 ) ) ;
#112 = DIRECTION ( 'NONE',  ( 3.491481338843133355E-15, -1.224646799147353207E-16, 1.000000000000000000 ) ) ;
#113 = FACE_OUTER_BOUND ( 'NONE', #102, .T. ) ;
#114 = SECURITY_CLASSIFICATION ( '', '', #98 ) ;
#115 = DATE_TIME_ROLE ( 'classification_date' ) ;
#116 = PRODUCT_RELATED_PRODUCT_CATEGORY ( 'detail', '', ( #122 ) ) ;
#117 = COORDINATED_UNIVERSAL_TIME_OFFSET ( 1, 0, .AHEAD. ) ;
#118 = CARTESIAN_POINT ( 'NONE',  ( 0.0000000000000000000, 0.0000000000000000000, 0.0000000000000000000 ) ) ;
#119 = DATE_AND_TIME ( #86, #14 ) ;
#120 = PERSON_AND_ORGANIZATION ( #220, #147 ) ;
#121 = APPLICATION_CONTEXT ( 'configuration controlled 3d designs of mechanical parts and assemblies' ) ;
#122 = PRODUCT ( '976862', '976862', '', ( #83 ) ) ;
#123 = AXIS2_PLACEMENT_3D ( 'NONE', #222, #91, #75 ) ;
#124 = EDGE_LOOP ( 'NONE', ( #144 ) ) ;
#125 = EDGE_LOOP ( 'NONE', ( #207 ) ) ;
#126 = CONICAL_SURFACE ( 'NONE', #255, 1.499999999999990452, 1.221730476396026610 ) ;
#127 = EDGE_LOOP ( 'NONE', ( #51 ) ) ;
#128 = AXIS2_PLACEMENT_3D ( 'NONE', #215, #174, #15 ) ;
#129 = CARTESIAN_POINT ( 'NONE',  ( 2.444036937190193349E-14, -0.7500000000000045519, 7.000000000000000000 ) ) ;
#130 = VERTEX_POINT ( 'NONE', #208 ) ;
#131 = AXIS2_PLACEMENT_3D ( 'NONE', #70, #35, #110 ) ;
#132 = CALENDAR_DATE ( 2021, 13, 10 ) ;
#133 = DIRECTION ( 'NONE',  ( -3.491481338843133355E-15, 1.224646799147353207E-16, -1.000000000000000000 ) ) ;
#134 = CC_DESIGN_PERSON_AND_ORGANIZATION_ASSIGNMENT ( #257, #154, ( #186 ) ) ;
#135 = APPLICATION_PROTOCOL_DEFINITION ( 'international standard', 'config_control_design', 1994, #148 ) ;
#136 = APPROVAL_STATUS ( 'not_yet_approved' ) ;
#137 = ADVANCED_FACE ( 'NONE', ( #175, #58 ), #216, .T. ) ;
#138 = APPROVAL_DATE_TIME ( #193, #67 ) ;
#139 = EDGE_LOOP ( 'NONE', ( #141 ) ) ;
#140 = DIRECTION ( 'NONE',  ( 3.491481338843133355E-15, -4.327174794786742882E-16, 1.000000000000000000 ) ) ;
#141 = ORIENTED_EDGE ( 'NONE', *, *, #11, .F. ) ;
#142 = APPROVAL_PERSON_ORGANIZATION ( #240, #33, #22 ) ;
#143 = LOCAL_TIME ( 13, 36, 39.00000000000000000, #213 ) ;
#144 = ORIENTED_EDGE ( 'NONE', *, *, #231, .T. ) ;
#145 = CARTESIAN_POINT ( 'NONE',  ( 3.491481338843133355E-14, 0.7499999999999986677, 10.00000000000000000 ) ) ;
#146 = ADVANCED_FACE ( 'NONE', ( #245, #165 ), #152, .F. ) ;
#147 = ORGANIZATION ( 'UNSPECIFIED', 'UNSPECIFIED', '' ) ;
#148 = APPLICATION_CONTEXT ( 'configuration controlled 3d designs of mechanical parts and assemblies' ) ;
#149 = CARTESIAN_POINT ( 'NONE',  ( 1.906192921252225756E-15, -6.686024735685297531E-17, 0.5459553513993069540 ) ) ;
#150 = APPROVAL_STATUS ( 'not_yet_approved' ) ;
#151 = DIRECTION ( 'NONE',  ( 1.510825004591027855E-30, 1.000000000000000000, 4.327174794786742882E-16 ) ) ;
#152 = TOROIDAL_SURFACE ( 'NONE', #262, 1.750000000000003109, 0.9999999999999997780 ) ;
#153 = DESIGN_CONTEXT ( 'detailed design', #121, 'design' ) ;
#154 = PERSON_AND_ORGANIZATION_ROLE ( 'design_supplier' ) ;
#155 = CC_DESIGN_APPROVAL ( #73, ( #47 ) ) ;
#156 = DIRECTION ( 'NONE',  ( -3.491481338843133355E-15, 1.224646799147353207E-16, -1.000000000000000000 ) ) ;
#157 = CARTESIAN_POINT ( 'NONE',  ( 5.166245781477118393E-14, -6.402797655131764481E-15, 14.79671600704846135 ) ) ;
#158 = FACE_BOUND ( 'NONE', #244, .T. ) ;
#159 = ORIENTED_EDGE ( 'NONE', *, *, #103, .T. ) ;
#160 = DIRECTION ( 'NONE',  ( 4.275831445896958607E-31, 1.000000000000000000, 1.224646799147353207E-16 ) ) ;
#161 = CIRCLE ( 'NONE', #96, 1.499999999999995115 ) ;
#162 =( GEOMETRIC_REPRESENTATION_CONTEXT ( 3 ) GLOBAL_UNCERTAINTY_ASSIGNED_CONTEXT ( ( #30 ) ) GLOBAL_UNIT_ASSIGNED_CONTEXT ( ( #211, #37, #87 ) ) REPRESENTATION_CONTEXT ( 'NONE', 'WORKASPACE' ) );
#163 = DIRECTION ( 'NONE',  ( -3.491481338843133355E-15, 1.224646799147353207E-16, -1.000000000000000000 ) ) ;
#164 = ADVANCED_BREP_SHAPE_REPRESENTATION ( '976862', ( #180, #16, #128 ), #162 ) ;
#165 = FACE_OUTER_BOUND ( 'NONE', #78, .T. ) ;
#166 = CARTESIAN_POINT ( 'NONE',  ( 4.514726493965052101E-14, -1.499999999999998668, 12.93069060326400255 ) ) ;
#167 = CARTESIAN_POINT ( 'NONE',  ( 1.326762908760390423E-13, 1.099999999999990319, 38.00000000000000000 ) ) ;
#168 = PERSON_AND_ORGANIZATION ( #220, #147 ) ;
#169 = APPLICATION_PROTOCOL_DEFINITION ( 'international standard', 'config_control_design', 1994, #121 ) ;
#170 = AXIS2_PLACEMENT_3D ( 'NONE', #52, #163, #250 ) ;
#171 = PERSON_AND_ORGANIZATION ( #220, #147 ) ;
#172 = CARTESIAN_POINT ( 'NONE',  ( 1.326762908760390423E-13, 8.248678804640111472E-33, 38.00000000000000000 ) ) ;
#173 = EDGE_CURVE ( 'NONE', #6, #6, #101, .T. ) ;
#174 = DIRECTION ( 'NONE',  ( 0.0000000000000000000, 0.0000000000000000000, 1.000000000000000000 ) ) ;
#175 = FACE_OUTER_BOUND ( 'NONE', #248, .T. ) ;
#176 = EDGE_LOOP ( 'NONE', ( #7 ) ) ;
#177 = DIRECTION ( 'NONE',  ( -3.491481338843133355E-15, 4.327174794786742882E-16, -1.000000000000000000 ) ) ;
#178 = AXIS2_PLACEMENT_3D ( 'NONE', #214, #44, #237 ) ;
#179 = CC_DESIGN_PERSON_AND_ORGANIZATION_ASSIGNMENT ( #171, #219, ( #114 ) ) ;
#180 = MANIFOLD_SOLID_BREP ( 'Corps-Déplacer/Copier1[1]', #66 ) ;
#181 = EDGE_LOOP ( 'NONE', ( #202 ) ) ;
#182 = ADVANCED_FACE ( 'NONE', ( #241 ), #60, .F. ) ;
#183 = DIRECTION ( 'NONE',  ( 0.0000000000000000000, 1.000000000000000000, 0.0000000000000000000 ) ) ;
#184 = VERTEX_POINT ( 'NONE', #251 ) ;
#185 = ORIENTED_EDGE ( 'NONE', *, *, #201, .F. ) ;
#186 = PRODUCT_DEFINITION_FORMATION_WITH_SPECIFIED_SOURCE ( 'ANY', '', #122, .NOT_KNOWN. ) ;
#187 = EDGE_CURVE ( 'NONE', #184, #184, #94, .T. ) ;
#188 = DIRECTION ( 'NONE',  ( -5.135813185032661930E-31, -1.000000000000000000, -1.445602896647348531E-16 ) ) ;
#189 = DIRECTION ( 'NONE',  ( 0.0000000000000000000, -1.000000000000000000, 0.0000000000000000000 ) ) ;
#190 = DIRECTION ( 'NONE',  ( -4.275831445896958607E-31, -1.000000000000000000, -1.224646799147353207E-16 ) ) ;
#191 = CC_DESIGN_APPROVAL ( #67, ( #186 ) ) ;
#192 = PERSON_AND_ORGANIZATION_ROLE ( 'creator' ) ;
#193 = DATE_AND_TIME ( #233, #82 ) ;
#194 = COORDINATED_UNIVERSAL_TIME_OFFSET ( 1, 0, .AHEAD. ) ;
#195 = AXIS2_PLACEMENT_3D ( 'NONE', #1, #89, #160 ) ;
#196 = APPROVAL_STATUS ( 'not_yet_approved' ) ;
#197 = CC_DESIGN_DATE_AND_TIME_ASSIGNMENT ( #261, #236, ( #47 ) ) ;
#198 = APPROVAL_ROLE ( '' ) ;
#199 = DIRECTION ( 'NONE',  ( 4.275831445896958607E-31, 1.000000000000000000, 1.224646799147353207E-16 ) ) ;
#200 = AXIS2_PLACEMENT_3D ( 'NONE', #212, #260, #203 ) ;
#201 = EDGE_CURVE ( 'NONE', #81, #81, #221, .T. ) ;
#202 = ORIENTED_EDGE ( 'NONE', *, *, #173, .F. ) ;
#203 = DIRECTION ( 'NONE',  ( 0.0000000000000000000, 1.000000000000000000, 0.0000000000000000000 ) ) ;
#204 = ORIENTED_EDGE ( 'NONE', *, *, #173, .T. ) ;
#205 = FACE_OUTER_BOUND ( 'NONE', #127, .T. ) ;
#206 = ADVANCED_FACE ( 'NONE', ( #113 ), #9, .F. ) ;
#207 = ORIENTED_EDGE ( 'NONE', *, *, #231, .F. ) ;
#208 = CARTESIAN_POINT ( 'NONE',  ( 1.312796983405018394E-13, 1.499999999999990452, 37.60000000000000853 ) ) ;
#209 = AXIS2_PLACEMENT_3D ( 'NONE', #59, #112, #238 ) ;
#210 = CARTESIAN_POINT ( 'NONE',  ( 9.530964606261203720E-16, -0.7500000000000015543, 0.2729776756996556419 ) ) ;
#211 =( LENGTH_UNIT ( ) NAMED_UNIT ( * ) SI_UNIT ( .MILLI., .METRE. ) );
#212 = CARTESIAN_POINT ( 'NONE',  ( 1.326762908760390423E-13, -4.653657836759941941E-15, 38.00000000000000000 ) ) ;
#213 = COORDINATED_UNIVERSAL_TIME_OFFSET ( 1, 0, .AHEAD. ) ;
#214 = CARTESIAN_POINT ( 'NONE',  ( 4.514726493965052101E-14, -5.595335845762977471E-15, 12.93069060326400255 ) ) ;
#215 = CARTESIAN_POINT ( 'NONE',  ( 0.0000000000000000000, 0.0000000000000000000, 0.0000000000000000000 ) ) ;
#216 = CYLINDRICAL_SURFACE ( 'NONE', #195, 1.499999999999993117 ) ;
#217 = DIRECTION ( 'NONE',  ( -3.491481338843133355E-15, 4.327174794786742882E-16, -1.000000000000000000 ) ) ;
#218 = FACE_BOUND ( 'NONE', #72, .T. ) ;
#219 = PERSON_AND_ORGANIZATION_ROLE ( 'classification_officer' ) ;
#220 = PERSON ( 'UNSPECIFIED', 'UNSPECIFIED', 'UNSPECIFIED', ('UNSPECIFIED'), ('UNSPECIFIED'), ('UNSPECIFIED') ) ;
#221 = CIRCLE ( 'NONE', #246, 0.7500000000000029976 ) ;
#222 = CARTESIAN_POINT ( 'NONE',  ( 1.326762908760390423E-13, -4.653657836759941941E-15, 38.00000000000000000 ) ) ;
#223 = EDGE_CURVE ( 'NONE', #227, #227, #228, .T. ) ;
#224 = ORIENTED_EDGE ( 'NONE', *, *, #36, .T. ) ;
#225 = AXIS2_PLACEMENT_3D ( 'NONE', #2, #177, #28 ) ;
#226 = ORIENTED_EDGE ( 'NONE', *, *, #223, .T. ) ;
#227 = VERTEX_POINT ( 'NONE', #210 ) ;
#228 = CIRCLE ( 'NONE', #170, 0.7500000000000015543 ) ;
#229 = PLANE ( 'NONE',  #209 ) ;
#230 = DIRECTION ( 'NONE',  ( -3.491481338843133355E-15, 1.224646799147353207E-16, -1.000000000000000000 ) ) ;
#231 = EDGE_CURVE ( 'NONE', #54, #54, #3, .T. ) ;
#232 = DIRECTION ( 'NONE',  ( 3.491481338843133355E-15, -1.224646799147353207E-16, 1.000000000000000000 ) ) ;
#233 = CALENDAR_DATE ( 2021, 13, 10 ) ;
#234 = PRODUCT_DEFINITION_SHAPE ( 'NONE', 'NONE',  #47 ) ;
#235 = AXIS2_PLACEMENT_3D ( 'NONE', #111, #232, #190 ) ;
#236 = DATE_TIME_ROLE ( 'creation_date' ) ;
#237 = DIRECTION ( 'NONE',  ( 0.0000000000000000000, -1.000000000000000000, 0.0000000000000000000 ) ) ;
#238 = DIRECTION ( 'NONE',  ( -4.275831445896958607E-31, -1.000000000000000000, -1.224646799147353207E-16 ) ) ;
#239 = CARTESIAN_POINT ( 'NONE',  ( 3.491481338843133355E-14, -4.327174794786742882E-15, 10.00000000000000000 ) ) ;
#240 = PERSON_AND_ORGANIZATION ( #220, #147 ) ;
#241 = FACE_OUTER_BOUND ( 'NONE', #181, .T. ) ;
#242 = CONICAL_SURFACE ( 'NONE', #123, 1.099999999999994760, 0.7853981633974602694 ) ;
#243 = DATE_AND_TIME ( #132, #38 ) ;
#244 = EDGE_LOOP ( 'NONE', ( #204 ) ) ;
#245 = FACE_OUTER_BOUND ( 'NONE', #69, .T. ) ;
#246 = AXIS2_PLACEMENT_3D ( 'NONE', #239, #64, #183 ) ;
#247 = ORIENTED_EDGE ( 'NONE', *, *, #187, .F. ) ;
#248 = EDGE_LOOP ( 'NONE', ( #159 ) ) ;
#249 = CC_DESIGN_SECURITY_CLASSIFICATION ( #114, ( #186 ) ) ;
#250 = DIRECTION ( 'NONE',  ( -5.135813185032618140E-31, -1.000000000000000000, -1.445602896647336205E-16 ) ) ;
#251 = CARTESIAN_POINT ( 'NONE',  ( 2.444036937190193349E-14, -0.7500000000000045519, 7.000000000000000000 ) ) ;
#252 = FACE_OUTER_BOUND ( 'NONE', #125, .T. ) ;
#253 = ADVANCED_FACE ( 'NONE', ( #95 ), #126, .T. ) ;
#254 = CARTESIAN_POINT ( 'NONE',  ( 2.444036937190193349E-14, -3.029022356350720412E-15, 7.000000000000000000 ) ) ;
#255 = AXIS2_PLACEMENT_3D ( 'NONE', #149, #12, #188 ) ;
#256 = CC_DESIGN_DATE_AND_TIME_ASSIGNMENT ( #99, #115, ( #114 ) ) ;
#257 = PERSON_AND_ORGANIZATION ( #220, #147 ) ;
#258 = DIRECTION ( 'NONE',  ( -3.491481338843133355E-15, 1.224646799147353207E-16, -1.000000000000000000 ) ) ;
#259 = APPROVAL_ROLE ( '' ) ;
#260 = DIRECTION ( 'NONE',  ( -3.491481338843133355E-15, 1.224646799147353207E-16, -1.000000000000000000 ) ) ;
#261 = DATE_AND_TIME ( #57, #50 ) ;
#262 = AXIS2_PLACEMENT_3D ( 'NONE', #80, #39, #31 ) ;
#263 = APPROVAL_PERSON_ORGANIZATION ( #43, #73, #259 ) ;
ENDSEC;
END-ISO-10303-21;
