ISO-10303-21;
HEADER;
FILE_DESCRIPTION (( 'STEP AP203' ),
    '1' );
FILE_NAME ('976861.step',
    '2021-10-13T11:36:38',
    ( '' ),
    ( '' ),
    'SwSTEP 2.0',
    'SolidWorks 2019',
    '' );
FILE_SCHEMA (( 'CONFIG_CONTROL_DESIGN' ));
ENDSEC;

DATA;
#1 = DESIGN_CONTEXT ( 'detailed design', #68, 'design' ) ;
#2 = FACE_OUTER_BOUND ( 'NONE', #198, .T. ) ;
#3 = APPROVAL ( #124, 'UNSPECIFIED' ) ;
#4 = AXIS2_PLACEMENT_3D ( 'NONE', #108, #229, #174 ) ;
#5 = PLANE ( 'NONE',  #4 ) ;
#6 = DIRECTION ( 'NONE',  ( 3.491481338843133355E-15, -4.327174794786742882E-16, 1.000000000000000000 ) ) ;
#7 = CC_DESIGN_PERSON_AND_ORGANIZATION_ASSIGNMENT ( #42, #55, ( #45 ) ) ;
#8 = MANIFOLD_SOLID_BREP ( 'Corps-Déplacer/Copier1[2]', #36 ) ;
#9 = PRODUCT_DEFINITION_SHAPE ( 'NONE', 'NONE',  #114 ) ;
#10 = AXIS2_PLACEMENT_3D ( 'NONE', #226, #105, #217 ) ;
#11 = MANIFOLD_SOLID_BREP ( 'Corps-Déplacer/Copier1[1]', #152 ) ;
#12 =( LENGTH_UNIT ( ) NAMED_UNIT ( * ) SI_UNIT ( .MILLI., .METRE. ) );
#13 = APPROVAL_DATE_TIME ( #95, #122 ) ;
#14 = EDGE_LOOP ( 'NONE', ( #204 ) ) ;
#15 = APPROVAL_DATE_TIME ( #137, #3 ) ;
#16 = AXIS2_PLACEMENT_3D ( 'NONE', #38, #26, #149 ) ;
#17 = FACE_OUTER_BOUND ( 'NONE', #254, .T. ) ;
#18 = CALENDAR_DATE ( 2021, 13, 10 ) ;
#19 = ADVANCED_FACE ( 'NONE', ( #262 ), #171, .T. ) ;
#20 = DIRECTION ( 'NONE',  ( -3.491481338843133355E-15, 4.327174794786742882E-16, -1.000000000000000000 ) ) ;
#21 = DATE_TIME_ROLE ( 'creation_date' ) ;
#22 = EDGE_LOOP ( 'NONE', ( #112 ) ) ;
#23 = AXIS2_PLACEMENT_3D ( 'NONE', #44, #166, #169 ) ;
#24 = FACE_OUTER_BOUND ( 'NONE', #218, .T. ) ;
#25 = ADVANCED_FACE ( 'NONE', ( #223, #245 ), #250, .T. ) ;
#26 = DIRECTION ( 'NONE',  ( 3.491481338843133355E-15, -1.224646799147353207E-16, 1.000000000000000000 ) ) ;
#27 = AXIS2_PLACEMENT_3D ( 'NONE', #211, #6, #89 ) ;
#28 = EDGE_CURVE ( 'NONE', #51, #51, #33, .T. ) ;
#29 = APPROVAL_PERSON_ORGANIZATION ( #113, #196, #257 ) ;
#30 = CARTESIAN_POINT ( 'NONE',  ( 2.793185071074506684E-14, 0.6999999999999989564, 8.000000000000000000 ) ) ;
#31 = APPLICATION_CONTEXT ( 'configuration controlled 3d designs of mechanical parts and assemblies' ) ;
#32 = DIRECTION ( 'NONE',  ( 1.000000000000000000, 0.0000000000000000000, 0.0000000000000000000 ) ) ;
#33 = CIRCLE ( 'NONE', #87, 0.7000000000000011768 ) ;
#34 = EDGE_CURVE ( 'NONE', #195, #195, #53, .T. ) ;
#35 = APPROVAL_ROLE ( '' ) ;
#36 = CLOSED_SHELL ( 'NONE', ( #144, #47, #19 ) ) ;
#37 = AXIS2_PLACEMENT_3D ( 'NONE', #128, #200, #96 ) ;
#38 = CARTESIAN_POINT ( 'NONE',  ( 1.745740669421566993E-14, 1.124819836996385543E-32, 5.000000000000000888 ) ) ;
#39 = DIRECTION ( 'NONE',  ( 0.0000000000000000000, 1.000000000000000000, 0.0000000000000000000 ) ) ;
#40 = PERSON_AND_ORGANIZATION_ROLE ( 'creator' ) ;
#41 = EDGE_LOOP ( 'NONE', ( #241 ) ) ;
#42 = PERSON_AND_ORGANIZATION ( #253, #209 ) ;
#43 = CYLINDRICAL_SURFACE ( 'NONE', #236, 0.7000000000000011768 ) ;
#44 = CARTESIAN_POINT ( 'NONE',  ( 1.745740669421566993E-14, -2.163587397393371835E-15, 5.000000000000000888 ) ) ;
#45 = SECURITY_CLASSIFICATION ( '', '', #201 ) ;
#46 = VERTEX_POINT ( 'NONE', #134 ) ;
#47 = ADVANCED_FACE ( 'NONE', ( #84, #24 ), #43, .T. ) ;
#48 = VERTEX_POINT ( 'NONE', #154 ) ;
#49 = LOCAL_TIME ( 13, 36, 38.00000000000000000, #56 ) ;
#50 = DIRECTION ( 'NONE',  ( 3.491481338843133355E-15, -1.224646799147353207E-16, 1.000000000000000000 ) ) ;
#51 = VERTEX_POINT ( 'NONE', #230 ) ;
#52 = CC_DESIGN_PERSON_AND_ORGANIZATION_ASSIGNMENT ( #143, #80, ( #117 ) ) ;
#53 = CIRCLE ( 'NONE', #23, 0.7000000000000011768 ) ;
#54 = ADVANCED_BREP_SHAPE_REPRESENTATION ( '976861', ( #11, #8, #224 ), #190 ) ;
#55 = PERSON_AND_ORGANIZATION_ROLE ( 'classification_officer' ) ;
#56 = COORDINATED_UNIVERSAL_TIME_OFFSET ( 1, 0, .AHEAD. ) ;
#57 = CC_DESIGN_PERSON_AND_ORGANIZATION_ASSIGNMENT ( #216, #40, ( #114 ) ) ;
#58 = AXIS2_PLACEMENT_3D ( 'NONE', #151, #227, #234 ) ;
#59 = ORIENTED_EDGE ( 'NONE', *, *, #28, .T. ) ;
#60 = PERSON_AND_ORGANIZATION_ROLE ( 'creator' ) ;
#61 = ORIENTED_EDGE ( 'NONE', *, *, #168, .T. ) ;
#62 = CALENDAR_DATE ( 2021, 13, 10 ) ;
#63 = DIRECTION ( 'NONE',  ( 0.0000000000000000000, -1.000000000000000000, 0.0000000000000000000 ) ) ;
#64 = DIRECTION ( 'NONE',  ( -3.491481338843133355E-15, 1.224646799147353207E-16, -1.000000000000000000 ) ) ;
#65 = AXIS2_PLACEMENT_3D ( 'NONE', #232, #50, #82 ) ;
#66 = CARTESIAN_POINT ( 'NONE',  ( 0.0000000000000000000, 0.0000000000000000000, 0.0000000000000000000 ) ) ;
#67 = EDGE_CURVE ( 'NONE', #48, #48, #188, .T. ) ;
#68 = APPLICATION_CONTEXT ( 'configuration controlled 3d designs of mechanical parts and assemblies' ) ;
#69 = DIRECTION ( 'NONE',  ( 0.0000000000000000000, 1.000000000000000000, 0.0000000000000000000 ) ) ;
#70 = PRODUCT_RELATED_PRODUCT_CATEGORY ( 'detail', '', ( #155 ) ) ;
#71 = CARTESIAN_POINT ( 'NONE',  ( 2.793185071074506684E-14, -3.461739835829394306E-15, 8.000000000000000000 ) ) ;
#72 = FACE_BOUND ( 'NONE', #92, .T. ) ;
#73 = ORIENTED_EDGE ( 'NONE', *, *, #192, .T. ) ;
#74 = ADVANCED_FACE ( 'NONE', ( #17, #187 ), #221, .T. ) ;
#75 = PERSON_AND_ORGANIZATION ( #253, #209 ) ;
#76 = FACE_OUTER_BOUND ( 'NONE', #142, .T. ) ;
#77 = DATE_AND_TIME ( #162, #233 ) ;
#78 = AXIS2_PLACEMENT_3D ( 'NONE', #101, #140, #205 ) ;
#79 = DIRECTION ( 'NONE',  ( -5.502656983963521750E-31, -1.000000000000000000, -1.548860246407860871E-16 ) ) ;
#80 = PERSON_AND_ORGANIZATION_ROLE ( 'design_supplier' ) ;
#81 = DIRECTION ( 'NONE',  ( -3.491481338843133355E-15, 1.224646799147353207E-16, -1.000000000000000000 ) ) ;
#82 = DIRECTION ( 'NONE',  ( -4.275831445896958607E-31, -1.000000000000000000, -1.224646799147353207E-16 ) ) ;
#83 = CC_DESIGN_PERSON_AND_ORGANIZATION_ASSIGNMENT ( #203, #119, ( #155 ) ) ;
#84 = FACE_OUTER_BOUND ( 'NONE', #259, .T. ) ;
#85 = EDGE_LOOP ( 'NONE', ( #194 ) ) ;
#86 = CIRCLE ( 'NONE', #10, 1.499999999999995115 ) ;
#87 = AXIS2_PLACEMENT_3D ( 'NONE', #225, #208, #79 ) ;
#88 = EDGE_CURVE ( 'NONE', #129, #129, #94, .T. ) ;
#89 = DIRECTION ( 'NONE',  ( 0.0000000000000000000, -1.000000000000000000, 0.0000000000000000000 ) ) ;
#90 =( NAMED_UNIT ( * ) PLANE_ANGLE_UNIT ( ) SI_UNIT ( $, .RADIAN. ) );
#91 = APPROVAL_PERSON_ORGANIZATION ( #235, #122, #255 ) ;
#92 = EDGE_LOOP ( 'NONE', ( #256 ) ) ;
#93 = APPROVAL_STATUS ( 'not_yet_approved' ) ;
#94 = CIRCLE ( 'NONE', #185, 0.7000000000000011768 ) ;
#95 = DATE_AND_TIME ( #184, #49 ) ;
#96 = DIRECTION ( 'NONE',  ( 4.275831445896958607E-31, 1.000000000000000000, 1.224646799147353207E-16 ) ) ;
#97 = DATE_AND_TIME ( #18, #180 ) ;
#98 = ORIENTED_EDGE ( 'NONE', *, *, #88, .T. ) ;
#99 = ORIENTED_EDGE ( 'NONE', *, *, #88, .F. ) ;
#100 = ADVANCED_FACE ( 'NONE', ( #202, #76 ), #118, .T. ) ;
#101 = CARTESIAN_POINT ( 'NONE',  ( 2.793185071074506684E-14, -3.469446951953614189E-15, 8.000000000000000000 ) ) ;
#102 = DIRECTION ( 'NONE',  ( -3.491481338843133355E-15, 4.327174794786742882E-16, -1.000000000000000000 ) ) ;
#103 = ORIENTED_EDGE ( 'NONE', *, *, #172, .F. ) ;
#104 = UNCERTAINTY_MEASURE_WITH_UNIT (LENGTH_MEASURE( 1.000000000000000082E-05 ), #12, 'distance_accuracy_value', 'NONE');
#105 = DIRECTION ( 'NONE',  ( -3.491481338843133355E-15, 1.224646799147353207E-16, -1.000000000000000000 ) ) ;
#106 = FACE_OUTER_BOUND ( 'NONE', #85, .T. ) ;
#107 = VERTEX_POINT ( 'NONE', #213 ) ;
#108 = CARTESIAN_POINT ( 'NONE',  ( 1.326762908760390423E-13, 8.248678804640111472E-33, 38.00000000000000000 ) ) ;
#109 = PLANE ( 'NONE',  #65 ) ;
#110 = VERTEX_POINT ( 'NONE', #175 ) ;
#111 = DIRECTION ( 'NONE',  ( 0.0000000000000000000, 1.000000000000000000, 0.0000000000000000000 ) ) ;
#112 = ORIENTED_EDGE ( 'NONE', *, *, #168, .F. ) ;
#113 = PERSON_AND_ORGANIZATION ( #253, #209 ) ;
#114 = PRODUCT_DEFINITION ( 'UNKNOWN', '', #117, #1 ) ;
#115 = APPROVAL_DATE_TIME ( #77, #196 ) ;
#116 = CC_DESIGN_APPROVAL ( #3, ( #45 ) ) ;
#117 = PRODUCT_DEFINITION_FORMATION_WITH_SPECIFIED_SOURCE ( 'ANY', '', #155, .NOT_KNOWN. ) ;
#118 = CYLINDRICAL_SURFACE ( 'NONE', #37, 1.499999999999993117 ) ;
#119 = PERSON_AND_ORGANIZATION_ROLE ( 'design_owner' ) ;
#120 = DIRECTION ( 'NONE',  ( 1.510825004591028030E-30, 1.000000000000000000, 4.327174794786742882E-16 ) ) ;
#121 = SHAPE_DEFINITION_REPRESENTATION ( #9, #54 ) ;
#122 = APPROVAL ( #93, 'UNSPECIFIED' ) ;
#123 = EDGE_LOOP ( 'NONE', ( #159 ) ) ;
#124 = APPROVAL_STATUS ( 'not_yet_approved' ) ;
#125 = FACE_OUTER_BOUND ( 'NONE', #123, .T. ) ;
#126 = CONICAL_SURFACE ( 'NONE', #58, 1.499999999999990452, 1.221730476396026610 ) ;
#127 = EDGE_LOOP ( 'NONE', ( #99 ) ) ;
#128 = CARTESIAN_POINT ( 'NONE',  ( 0.0000000000000000000, 0.0000000000000000000, 0.0000000000000000000 ) ) ;
#129 = VERTEX_POINT ( 'NONE', #214 ) ;
#130 = LOCAL_TIME ( 13, 36, 38.00000000000000000, #239 ) ;
#131 = CARTESIAN_POINT ( 'NONE',  ( 1.326762908760390423E-13, -4.653657836759941941E-15, 38.00000000000000000 ) ) ;
#132 = CARTESIAN_POINT ( 'NONE',  ( 0.0000000000000000000, 0.0000000000000000000, 0.0000000000000000000 ) ) ;
#133 = FACE_OUTER_BOUND ( 'NONE', #240, .T. ) ;
#134 = CARTESIAN_POINT ( 'NONE',  ( 1.312796983405018394E-13, 1.499999999999990452, 37.60000000000000853 ) ) ;
#135 =( NAMED_UNIT ( * ) SI_UNIT ( $, .STERADIAN. ) SOLID_ANGLE_UNIT ( ) );
#136 = TOROIDAL_SURFACE ( 'NONE', #78, 1.700000000000002620, 1.000000000000000444 ) ;
#137 = DATE_AND_TIME ( #178, #231 ) ;
#138 = EDGE_LOOP ( 'NONE', ( #61 ) ) ;
#139 = COORDINATED_UNIVERSAL_TIME_OFFSET ( 1, 0, .AHEAD. ) ;
#140 = DIRECTION ( 'NONE',  ( -3.491481338843133355E-15, 4.327174794786742882E-16, -1.000000000000000000 ) ) ;
#141 = CIRCLE ( 'NONE', #27, 1.499999999999993117 ) ;
#142 = EDGE_LOOP ( 'NONE', ( #147 ) ) ;
#143 = PERSON_AND_ORGANIZATION ( #253, #209 ) ;
#144 = ADVANCED_FACE ( 'NONE', ( #181 ), #126, .T. ) ;
#145 = DIRECTION ( 'NONE',  ( 1.510825004591028030E-30, 1.000000000000000000, 4.327174794786742882E-16 ) ) ;
#146 = APPROVAL_STATUS ( 'not_yet_approved' ) ;
#147 = ORIENTED_EDGE ( 'NONE', *, *, #172, .T. ) ;
#148 = AXIS2_PLACEMENT_3D ( 'NONE', #186, #258, #183 ) ;
#149 = DIRECTION ( 'NONE',  ( -4.275831445896958607E-31, -1.000000000000000000, -1.224646799147353207E-16 ) ) ;
#150 = CARTESIAN_POINT ( 'NONE',  ( 0.0000000000000000000, 0.0000000000000000000, 0.0000000000000000000 ) ) ;
#151 = CARTESIAN_POINT ( 'NONE',  ( 1.906192921252225756E-15, -6.686024735685297531E-17, 0.5459553513993069540 ) ) ;
#152 = CLOSED_SHELL ( 'NONE', ( #100, #189, #222, #74, #25, #215, #153 ) ) ;
#153 = ADVANCED_FACE ( 'NONE', ( #133 ), #109, .F. ) ;
#154 = CARTESIAN_POINT ( 'NONE',  ( 1.326762908760390423E-13, 1.099999999999990319, 38.00000000000000000 ) ) ;
#155 = PRODUCT ( '976861', '976861', '', ( #164 ) ) ;
#156 = CARTESIAN_POINT ( 'NONE',  ( 1.745740669421566993E-14, -0.7000000000000033973, 5.000000000000000888 ) ) ;
#157 = CC_DESIGN_SECURITY_CLASSIFICATION ( #45, ( #117 ) ) ;
#158 = DIRECTION ( 'NONE',  ( -3.491481338843133355E-15, 1.224646799147353207E-16, -1.000000000000000000 ) ) ;
#159 = ORIENTED_EDGE ( 'NONE', *, *, #67, .F. ) ;
#160 = DATE_AND_TIME ( #62, #130 ) ;
#161 = AXIS2_PLACEMENT_3D ( 'NONE', #71, #247, #69 ) ;
#162 = CALENDAR_DATE ( 2021, 13, 10 ) ;
#163 = ORIENTED_EDGE ( 'NONE', *, *, #28, .F. ) ;
#164 = MECHANICAL_CONTEXT ( 'NONE', #31, 'mechanical' ) ;
#165 = CC_DESIGN_APPROVAL ( #196, ( #114 ) ) ;
#166 = DIRECTION ( 'NONE',  ( -3.491481338843133355E-15, 1.224646799147353207E-16, -1.000000000000000000 ) ) ;
#167 = EDGE_LOOP ( 'NONE', ( #59 ) ) ;
#168 = EDGE_CURVE ( 'NONE', #110, #110, #141, .T. ) ;
#169 = DIRECTION ( 'NONE',  ( 0.0000000000000000000, -1.000000000000000000, 0.0000000000000000000 ) ) ;
#170 = APPROVAL_PERSON_ORGANIZATION ( #252, #3, #35 ) ;
#171 = PLANE ( 'NONE',  #16 ) ;
#172 = EDGE_CURVE ( 'NONE', #46, #46, #86, .T. ) ;
#173 = CIRCLE ( 'NONE', #212, 0.7340741737109339748 ) ;
#174 = DIRECTION ( 'NONE',  ( 4.275831445896958607E-31, 1.000000000000000000, 1.224646799147353207E-16 ) ) ;
#175 = CARTESIAN_POINT ( 'NONE',  ( 3.881582154947633069E-14, -1.499999999999997780, 11.11729314364245269 ) ) ;
#176 = CIRCLE ( 'NONE', #161, 0.7000000000000023981 ) ;
#177 = APPLICATION_PROTOCOL_DEFINITION ( 'international standard', 'config_control_design', 1994, #31 ) ;
#178 = CALENDAR_DATE ( 2021, 13, 10 ) ;
#179 = ORIENTED_EDGE ( 'NONE', *, *, #34, .T. ) ;
#180 = LOCAL_TIME ( 13, 36, 38.00000000000000000, #237 ) ;
#181 = FACE_OUTER_BOUND ( 'NONE', #167, .T. ) ;
#182 = APPLICATION_PROTOCOL_DEFINITION ( 'international standard', 'config_control_design', 1994, #68 ) ;
#183 = DIRECTION ( 'NONE',  ( 0.0000000000000000000, -1.000000000000000000, 0.0000000000000000000 ) ) ;
#184 = CALENDAR_DATE ( 2021, 13, 10 ) ;
#185 = AXIS2_PLACEMENT_3D ( 'NONE', #238, #81, #63 ) ;
#186 = CARTESIAN_POINT ( 'NONE',  ( 4.533101442459698730E-14, -5.618108877111295000E-15, 12.98331854742690794 ) ) ;
#187 = FACE_OUTER_BOUND ( 'NONE', #41, .T. ) ;
#188 = CIRCLE ( 'NONE', #263, 1.099999999999994760 ) ;
#189 = ADVANCED_FACE ( 'NONE', ( #249, #72 ), #199, .T. ) ;
#190 =( GEOMETRIC_REPRESENTATION_CONTEXT ( 3 ) GLOBAL_UNCERTAINTY_ASSIGNED_CONTEXT ( ( #104 ) ) GLOBAL_UNIT_ASSIGNED_CONTEXT ( ( #12, #90, #135 ) ) REPRESENTATION_CONTEXT ( 'NONE', 'WORKASPACE' ) );
#191 = DIRECTION ( 'NONE',  ( 0.0000000000000000000, 0.0000000000000000000, 1.000000000000000000 ) ) ;
#192 = EDGE_CURVE ( 'NONE', #107, #107, #173, .T. ) ;
#193 = VERTEX_POINT ( 'NONE', #30 ) ;
#194 = ORIENTED_EDGE ( 'NONE', *, *, #260, .F. ) ;
#195 = VERTEX_POINT ( 'NONE', #156 ) ;
#196 = APPROVAL ( #146, 'UNSPECIFIED' ) ;
#197 = COORDINATED_UNIVERSAL_TIME_OFFSET ( 1, 0, .AHEAD. ) ;
#198 = EDGE_LOOP ( 'NONE', ( #73 ) ) ;
#199 = CONICAL_SURFACE ( 'NONE', #246, 1.099999999999994760, 0.7853981633974602694 ) ;
#200 = DIRECTION ( 'NONE',  ( -3.491481338843133355E-15, 1.224646799147353207E-16, -1.000000000000000000 ) ) ;
#201 = SECURITY_CLASSIFICATION_LEVEL ( 'unclassified' ) ;
#202 = FACE_OUTER_BOUND ( 'NONE', #138, .T. ) ;
#203 = PERSON_AND_ORGANIZATION ( #253, #209 ) ;
#204 = ORIENTED_EDGE ( 'NONE', *, *, #192, .F. ) ;
#205 = DIRECTION ( 'NONE',  ( 1.550166181484745478E-30, 1.000000000000000000, 4.327174794786742882E-16 ) ) ;
#206 = AXIS2_PLACEMENT_3D ( 'NONE', #150, #20, #120 ) ;
#207 = ORIENTED_EDGE ( 'NONE', *, *, #260, .T. ) ;
#208 = DIRECTION ( 'NONE',  ( -3.491481338843133355E-15, 1.224646799147353207E-16, -1.000000000000000000 ) ) ;
#209 = ORGANIZATION ( 'UNSPECIFIED', 'UNSPECIFIED', '' ) ;
#210 = DIRECTION ( 'NONE',  ( 0.0000000000000000000, 1.000000000000000000, 0.0000000000000000000 ) ) ;
#211 = CARTESIAN_POINT ( 'NONE',  ( 3.881582154947633069E-14, -4.810647067742509568E-15, 11.11729314364245269 ) ) ;
#212 = AXIS2_PLACEMENT_3D ( 'NONE', #261, #244, #210 ) ;
#213 = CARTESIAN_POINT ( 'NONE',  ( 2.883551257685771791E-14, 0.7340741737109304221, 8.258819045102521628 ) ) ;
#214 = CARTESIAN_POINT ( 'NONE',  ( 1.745740669421566993E-14, -0.7000000000000033973, 5.000000000000000888 ) ) ;
#215 = ADVANCED_FACE ( 'NONE', ( #106, #2 ), #136, .F. ) ;
#216 = PERSON_AND_ORGANIZATION ( #253, #209 ) ;
#217 = DIRECTION ( 'NONE',  ( 0.0000000000000000000, 1.000000000000000000, 0.0000000000000000000 ) ) ;
#218 = EDGE_LOOP ( 'NONE', ( #163 ) ) ;
#219 = EDGE_LOOP ( 'NONE', ( #103 ) ) ;
#220 = DATE_TIME_ROLE ( 'classification_date' ) ;
#221 = CYLINDRICAL_SURFACE ( 'NONE', #206, 0.7000000000000011768 ) ;
#222 = ADVANCED_FACE ( 'NONE', ( #125 ), #5, .F. ) ;
#223 = FACE_BOUND ( 'NONE', #14, .T. ) ;
#224 = AXIS2_PLACEMENT_3D ( 'NONE', #132, #191, #32 ) ;
#225 = CARTESIAN_POINT ( 'NONE',  ( 8.895566965843790139E-16, -3.120144876653163253E-17, 0.2547791639863453139 ) ) ;
#226 = CARTESIAN_POINT ( 'NONE',  ( 1.312796983405018394E-13, -4.604671964794048513E-15, 37.60000000000000853 ) ) ;
#227 = DIRECTION ( 'NONE',  ( 3.491481338843133355E-15, -1.224646799147353207E-16, 1.000000000000000000 ) ) ;
#228 = CC_DESIGN_DATE_AND_TIME_ASSIGNMENT ( #97, #21, ( #114 ) ) ;
#229 = DIRECTION ( 'NONE',  ( -3.491481338843133355E-15, 1.224646799147353207E-16, -1.000000000000000000 ) ) ;
#230 = CARTESIAN_POINT ( 'NONE',  ( 8.895566965843786194E-16, -0.7000000000000011768, 0.2547791639863452029 ) ) ;
#231 = LOCAL_TIME ( 13, 36, 38.00000000000000000, #139 ) ;
#232 = CARTESIAN_POINT ( 'NONE',  ( 1.745740669421566993E-14, 1.124819836996385543E-32, 5.000000000000000888 ) ) ;
#233 = LOCAL_TIME ( 13, 36, 38.00000000000000000, #197 ) ;
#234 = DIRECTION ( 'NONE',  ( -5.135813185032661930E-31, -1.000000000000000000, -1.445602896647348531E-16 ) ) ;
#235 = PERSON_AND_ORGANIZATION ( #253, #209 ) ;
#236 = AXIS2_PLACEMENT_3D ( 'NONE', #66, #102, #145 ) ;
#237 = COORDINATED_UNIVERSAL_TIME_OFFSET ( 1, 0, .AHEAD. ) ;
#238 = CARTESIAN_POINT ( 'NONE',  ( 1.745740669421566993E-14, -2.163587397393371835E-15, 5.000000000000000888 ) ) ;
#239 = COORDINATED_UNIVERSAL_TIME_OFFSET ( 1, 0, .AHEAD. ) ;
#240 = EDGE_LOOP ( 'NONE', ( #179 ) ) ;
#241 = ORIENTED_EDGE ( 'NONE', *, *, #34, .F. ) ;
#242 = CARTESIAN_POINT ( 'NONE',  ( 1.326762908760390423E-13, -4.653657836759941941E-15, 38.00000000000000000 ) ) ;
#243 = CC_DESIGN_APPROVAL ( #122, ( #117 ) ) ;
#244 = DIRECTION ( 'NONE',  ( -3.491481338843133355E-15, 4.327174794786742882E-16, -1.000000000000000000 ) ) ;
#245 = FACE_OUTER_BOUND ( 'NONE', #22, .T. ) ;
#246 = AXIS2_PLACEMENT_3D ( 'NONE', #131, #158, #111 ) ;
#247 = DIRECTION ( 'NONE',  ( -3.491481338843133355E-15, 4.327174794786742882E-16, -1.000000000000000000 ) ) ;
#248 = CC_DESIGN_PERSON_AND_ORGANIZATION_ASSIGNMENT ( #75, #60, ( #117 ) ) ;
#249 = FACE_OUTER_BOUND ( 'NONE', #219, .T. ) ;
#250 = CONICAL_SURFACE ( 'NONE', #148, 2.000000000000000000, 0.2617993877991505181 ) ;
#251 = CC_DESIGN_DATE_AND_TIME_ASSIGNMENT ( #160, #220, ( #45 ) ) ;
#252 = PERSON_AND_ORGANIZATION ( #253, #209 ) ;
#253 = PERSON ( 'UNSPECIFIED', 'UNSPECIFIED', 'UNSPECIFIED', ('UNSPECIFIED'), ('UNSPECIFIED'), ('UNSPECIFIED') ) ;
#254 = EDGE_LOOP ( 'NONE', ( #207 ) ) ;
#255 = APPROVAL_ROLE ( '' ) ;
#256 = ORIENTED_EDGE ( 'NONE', *, *, #67, .T. ) ;
#257 = APPROVAL_ROLE ( '' ) ;
#258 = DIRECTION ( 'NONE',  ( 3.491481338843133355E-15, -4.327174794786742882E-16, 1.000000000000000000 ) ) ;
#259 = EDGE_LOOP ( 'NONE', ( #98 ) ) ;
#260 = EDGE_CURVE ( 'NONE', #193, #193, #176, .T. ) ;
#261 = CARTESIAN_POINT ( 'NONE',  ( 2.883551257685771791E-14, -3.573735360667234739E-15, 8.258819045102521628 ) ) ;
#262 = FACE_OUTER_BOUND ( 'NONE', #127, .T. ) ;
#263 = AXIS2_PLACEMENT_3D ( 'NONE', #242, #64, #39 ) ;
ENDSEC;
END-ISO-10303-21;
