ISO-10303-21;
HEADER;
FILE_DESCRIPTION (( 'STEP AP203' ),
    '1' );
FILE_NAME ('976860.step',
    '2021-10-13T11:36:37',
    ( '' ),
    ( '' ),
    'SwSTEP 2.0',
    'SolidWorks 2019',
    '' );
FILE_SCHEMA (( 'CONFIG_CONTROL_DESIGN' ));
ENDSEC;

DATA;
#1 = PERSON_AND_ORGANIZATION_ROLE ( 'design_owner' ) ;
#2 = CARTESIAN_POINT ( 'NONE',  ( 8.260169325426379515E-16, -2.897277385463651856E-17, 0.2365806522730349581 ) ) ;
#3 = CARTESIAN_POINT ( 'NONE',  ( 2.883551257685771791E-14, 0.6840741737109305998, 8.258819045102521628 ) ) ;
#4 = FACE_OUTER_BOUND ( 'NONE', #236, .T. ) ;
#5 = AXIS2_PLACEMENT_3D ( 'NONE', #38, #159, #140 ) ;
#6 = CC_DESIGN_DATE_AND_TIME_ASSIGNMENT ( #153, #194, ( #130 ) ) ;
#7 = COORDINATED_UNIVERSAL_TIME_OFFSET ( 1, 0, .AHEAD. ) ;
#8 = ORIENTED_EDGE ( 'NONE', *, *, #241, .T. ) ;
#9 = EDGE_LOOP ( 'NONE', ( #90 ) ) ;
#10 = CC_DESIGN_APPROVAL ( #35, ( #238 ) ) ;
#11 = ADVANCED_FACE ( 'NONE', ( #63 ), #181, .F. ) ;
#12 = FACE_OUTER_BOUND ( 'NONE', #28, .T. ) ;
#13 = PRODUCT_DEFINITION_SHAPE ( 'NONE', 'NONE',  #130 ) ;
#14 = DIRECTION ( 'NONE',  ( 3.491481338843133355E-15, -4.327174794786742882E-16, 1.000000000000000000 ) ) ;
#15 = CARTESIAN_POINT ( 'NONE',  ( 2.883551257685771791E-14, -3.573735360667234739E-15, 8.258819045102521628 ) ) ;
#16 = CARTESIAN_POINT ( 'NONE',  ( 1.326762908760390423E-13, -4.653657836759941941E-15, 38.00000000000000000 ) ) ;
#17 = AXIS2_PLACEMENT_3D ( 'NONE', #262, #231, #109 ) ;
#18 = LOCAL_TIME ( 13, 36, 37.00000000000000000, #7 ) ;
#19 = FACE_OUTER_BOUND ( 'NONE', #9, .T. ) ;
#20 =( LENGTH_UNIT ( ) NAMED_UNIT ( * ) SI_UNIT ( .MILLI., .METRE. ) );
#21 = ADVANCED_FACE ( 'NONE', ( #123, #218 ), #31, .F. ) ;
#22 = ORGANIZATION ( 'UNSPECIFIED', 'UNSPECIFIED', '' ) ;
#23 = DIRECTION ( 'NONE',  ( -3.491481338843133355E-15, 4.327174794786742882E-16, -1.000000000000000000 ) ) ;
#24 =( NAMED_UNIT ( * ) PLANE_ANGLE_UNIT ( ) SI_UNIT ( $, .RADIAN. ) );
#25 = COORDINATED_UNIVERSAL_TIME_OFFSET ( 1, 0, .AHEAD. ) ;
#26 = CIRCLE ( 'NONE', #17, 1.499999999999995115 ) ;
#27 = SECURITY_CLASSIFICATION_LEVEL ( 'unclassified' ) ;
#28 = EDGE_LOOP ( 'NONE', ( #112 ) ) ;
#29 = APPROVAL_STATUS ( 'not_yet_approved' ) ;
#30 = AXIS2_PLACEMENT_3D ( 'NONE', #16, #259, #261 ) ;
#31 = TOROIDAL_SURFACE ( 'NONE', #111, 1.650000000000002354, 1.000000000000000000 ) ;
#32 = COORDINATED_UNIVERSAL_TIME_OFFSET ( 1, 0, .AHEAD. ) ;
#33 = ORIENTED_EDGE ( 'NONE', *, *, #234, .T. ) ;
#34 = EDGE_LOOP ( 'NONE', ( #196 ) ) ;
#35 = APPROVAL ( #175, 'UNSPECIFIED' ) ;
#36 = PLANE ( 'NONE',  #148 ) ;
#37 = AXIS2_PLACEMENT_3D ( 'NONE', #143, #199, #163 ) ;
#38 = CARTESIAN_POINT ( 'NONE',  ( 1.906192921252225756E-15, -6.686024735685297531E-17, 0.5459553513993069540 ) ) ;
#39 = DIRECTION ( 'NONE',  ( -3.491481338843133355E-15, 4.327174794786742882E-16, -1.000000000000000000 ) ) ;
#40 = FACE_OUTER_BOUND ( 'NONE', #114, .T. ) ;
#41 = APPLICATION_CONTEXT ( 'configuration controlled 3d designs of mechanical parts and assemblies' ) ;
#42 = CARTESIAN_POINT ( 'NONE',  ( 1.326762908760390423E-13, 8.248678804640111472E-33, 38.00000000000000000 ) ) ;
#43 = AXIS2_PLACEMENT_3D ( 'NONE', #64, #182, #101 ) ;
#44 = ADVANCED_FACE ( 'NONE', ( #78 ), #36, .T. ) ;
#45 = VERTEX_POINT ( 'NONE', #190 ) ;
#46 = MECHANICAL_CONTEXT ( 'NONE', #41, 'mechanical' ) ;
#47 = DESIGN_CONTEXT ( 'detailed design', #201, 'design' ) ;
#48 = CIRCLE ( 'NONE', #30, 1.099999999999994760 ) ;
#49 = VERTEX_POINT ( 'NONE', #249 ) ;
#50 = CC_DESIGN_PERSON_AND_ORGANIZATION_ASSIGNMENT ( #156, #237, ( #238 ) ) ;
#51 = FACE_OUTER_BOUND ( 'NONE', #92, .T. ) ;
#52 = PERSON_AND_ORGANIZATION_ROLE ( 'creator' ) ;
#53 = ADVANCED_FACE ( 'NONE', ( #40 ), #240, .F. ) ;
#54 = APPROVAL_DATE_TIME ( #235, #116 ) ;
#55 = CALENDAR_DATE ( 2021, 13, 10 ) ;
#56 = ORIENTED_EDGE ( 'NONE', *, *, #89, .T. ) ;
#57 = CC_DESIGN_APPROVAL ( #116, ( #130 ) ) ;
#58 = CALENDAR_DATE ( 2021, 13, 10 ) ;
#59 = ORIENTED_EDGE ( 'NONE', *, *, #79, .T. ) ;
#60 = DIRECTION ( 'NONE',  ( 0.0000000000000000000, -1.000000000000000000, 0.0000000000000000000 ) ) ;
#61 = EDGE_LOOP ( 'NONE', ( #157 ) ) ;
#62 = CONICAL_SURFACE ( 'NONE', #127, 2.000000000000000000, 0.2617993877991502960 ) ;
#63 = FACE_OUTER_BOUND ( 'NONE', #61, .T. ) ;
#64 = CARTESIAN_POINT ( 'NONE',  ( 1.745740669421566993E-14, -2.163587397393371835E-15, 5.000000000000000888 ) ) ;
#65 = PERSON ( 'UNSPECIFIED', 'UNSPECIFIED', 'UNSPECIFIED', ('UNSPECIFIED'), ('UNSPECIFIED'), ('UNSPECIFIED') ) ;
#66 = ADVANCED_FACE ( 'NONE', ( #244, #117 ), #200, .T. ) ;
#67 =( NAMED_UNIT ( * ) SI_UNIT ( $, .STERADIAN. ) SOLID_ANGLE_UNIT ( ) );
#68 = CARTESIAN_POINT ( 'NONE',  ( 0.0000000000000000000, 0.0000000000000000000, 0.0000000000000000000 ) ) ;
#69 = CONICAL_SURFACE ( 'NONE', #225, 1.099999999999994760, 0.7853981633974602694 ) ;
#70 = LOCAL_TIME ( 13, 36, 37.00000000000000000, #113 ) ;
#71 = CARTESIAN_POINT ( 'NONE',  ( 1.312796983405018394E-13, 1.499999999999990452, 37.60000000000000853 ) ) ;
#72 = CALENDAR_DATE ( 2021, 13, 10 ) ;
#73 = PERSON_AND_ORGANIZATION ( #65, #22 ) ;
#74 = COORDINATED_UNIVERSAL_TIME_OFFSET ( 1, 0, .AHEAD. ) ;
#75 = PERSON_AND_ORGANIZATION ( #65, #22 ) ;
#76 = ORIENTED_EDGE ( 'NONE', *, *, #241, .F. ) ;
#77 = ORIENTED_EDGE ( 'NONE', *, *, #147, .T. ) ;
#78 = FACE_OUTER_BOUND ( 'NONE', #144, .T. ) ;
#79 = EDGE_CURVE ( 'NONE', #49, #49, #122, .T. ) ;
#80 = DIRECTION ( 'NONE',  ( 0.0000000000000000000, -1.000000000000000000, 0.0000000000000000000 ) ) ;
#81 = CARTESIAN_POINT ( 'NONE',  ( 1.326762908760390423E-13, -4.653657836759941941E-15, 38.00000000000000000 ) ) ;
#82 = CC_DESIGN_DATE_AND_TIME_ASSIGNMENT ( #136, #115, ( #238 ) ) ;
#83 = APPLICATION_PROTOCOL_DEFINITION ( 'international standard', 'config_control_design', 1994, #201 ) ;
#84 = VERTEX_POINT ( 'NONE', #203 ) ;
#85 = DIRECTION ( 'NONE',  ( -3.491481338843133355E-15, 1.224646799147353207E-16, -1.000000000000000000 ) ) ;
#86 = LOCAL_TIME ( 13, 36, 37.00000000000000000, #74 ) ;
#87 = SHAPE_DEFINITION_REPRESENTATION ( #13, #98 ) ;
#88 = EDGE_LOOP ( 'NONE', ( #77 ) ) ;
#89 = EDGE_CURVE ( 'NONE', #84, #84, #48, .T. ) ;
#90 = ORIENTED_EDGE ( 'NONE', *, *, #188, .F. ) ;
#91 = APPROVAL_DATE_TIME ( #177, #207 ) ;
#92 = EDGE_LOOP ( 'NONE', ( #33 ) ) ;
#93 = CC_DESIGN_PERSON_AND_ORGANIZATION_ASSIGNMENT ( #134, #213, ( #102 ) ) ;
#94 = CALENDAR_DATE ( 2021, 13, 10 ) ;
#95 = EDGE_LOOP ( 'NONE', ( #8 ) ) ;
#96 = CIRCLE ( 'NONE', #246, 0.6500000000000012434 ) ;
#97 = DIRECTION ( 'NONE',  ( 4.275831445896958607E-31, 1.000000000000000000, 1.224646799147353207E-16 ) ) ;
#98 = ADVANCED_BREP_SHAPE_REPRESENTATION ( '976860', ( #253, #164, #141 ), #118 ) ;
#99 = DIRECTION ( 'NONE',  ( 0.0000000000000000000, 1.000000000000000000, 0.0000000000000000000 ) ) ;
#100 = EDGE_CURVE ( 'NONE', #205, #205, #189, .T. ) ;
#101 = DIRECTION ( 'NONE',  ( 0.0000000000000000000, -1.000000000000000000, 0.0000000000000000000 ) ) ;
#102 = PRODUCT_DEFINITION_FORMATION_WITH_SPECIFIED_SOURCE ( 'ANY', '', #185, .NOT_KNOWN. ) ;
#103 = ORIENTED_EDGE ( 'NONE', *, *, #100, .T. ) ;
#104 = VERTEX_POINT ( 'NONE', #71 ) ;
#105 = CARTESIAN_POINT ( 'NONE',  ( 2.793185071074506684E-14, 0.6499999999999991340, 8.000000000000000000 ) ) ;
#106 = CIRCLE ( 'NONE', #250, 0.6840741737109342635 ) ;
#107 = DIRECTION ( 'NONE',  ( -4.444453717816689230E-31, -1.000000000000000000, -1.251002506714041075E-16 ) ) ;
#108 = ADVANCED_FACE ( 'NONE', ( #19, #197 ), #69, .T. ) ;
#109 = DIRECTION ( 'NONE',  ( 0.0000000000000000000, 1.000000000000000000, 0.0000000000000000000 ) ) ;
#110 = CALENDAR_DATE ( 2021, 13, 10 ) ;
#111 = AXIS2_PLACEMENT_3D ( 'NONE', #222, #39, #219 ) ;
#112 = ORIENTED_EDGE ( 'NONE', *, *, #147, .F. ) ;
#113 = COORDINATED_UNIVERSAL_TIME_OFFSET ( 1, 0, .AHEAD. ) ;
#114 = EDGE_LOOP ( 'NONE', ( #103 ) ) ;
#115 = DATE_TIME_ROLE ( 'classification_date' ) ;
#116 = APPROVAL ( #29, 'UNSPECIFIED' ) ;
#117 = FACE_OUTER_BOUND ( 'NONE', #34, .T. ) ;
#118 =( GEOMETRIC_REPRESENTATION_CONTEXT ( 3 ) GLOBAL_UNCERTAINTY_ASSIGNED_CONTEXT ( ( #206 ) ) GLOBAL_UNIT_ASSIGNED_CONTEXT ( ( #20, #24, #67 ) ) REPRESENTATION_CONTEXT ( 'NONE', 'WORKASPACE' ) );
#119 = DIRECTION ( 'NONE',  ( -3.491481338843133355E-15, 4.327174794786742882E-16, -1.000000000000000000 ) ) ;
#120 = CARTESIAN_POINT ( 'NONE',  ( 3.946734083698839445E-14, -4.891393248679386296E-15, 11.30389568402089573 ) ) ;
#121 = CARTESIAN_POINT ( 'NONE',  ( 0.0000000000000000000, 0.0000000000000000000, 0.0000000000000000000 ) ) ;
#122 = CIRCLE ( 'NONE', #43, 0.6500000000000012434 ) ;
#123 = FACE_OUTER_BOUND ( 'NONE', #173, .T. ) ;
#124 = VERTEX_POINT ( 'NONE', #3 ) ;
#125 = FACE_OUTER_BOUND ( 'NONE', #171, .T. ) ;
#126 = DIRECTION ( 'NONE',  ( -3.491481338843133355E-15, 4.327174794786742882E-16, -1.000000000000000000 ) ) ;
#127 = AXIS2_PLACEMENT_3D ( 'NONE', #178, #221, #239 ) ;
#128 = CARTESIAN_POINT ( 'NONE',  ( 1.745740669421566993E-14, -0.6500000000000034639, 5.000000000000000888 ) ) ;
#129 = FACE_OUTER_BOUND ( 'NONE', #132, .T. ) ;
#130 = PRODUCT_DEFINITION ( 'UNKNOWN', '', #102, #47 ) ;
#131 = APPROVAL_DATE_TIME ( #257, #35 ) ;
#132 = EDGE_LOOP ( 'NONE', ( #158 ) ) ;
#133 = APPROVAL_ROLE ( '' ) ;
#134 = PERSON_AND_ORGANIZATION ( #65, #22 ) ;
#135 = APPROVAL_PERSON_ORGANIZATION ( #211, #35, #133 ) ;
#136 = DATE_AND_TIME ( #94, #184 ) ;
#137 = CC_DESIGN_PERSON_AND_ORGANIZATION_ASSIGNMENT ( #187, #1, ( #185 ) ) ;
#138 = FACE_OUTER_BOUND ( 'NONE', #95, .T. ) ;
#139 = ADVANCED_FACE ( 'NONE', ( #186, #12 ), #62, .T. ) ;
#140 = DIRECTION ( 'NONE',  ( -5.135813185032661930E-31, -1.000000000000000000, -1.445602896647348531E-16 ) ) ;
#141 = AXIS2_PLACEMENT_3D ( 'NONE', #68, #149, #252 ) ;
#142 = CARTESIAN_POINT ( 'NONE',  ( 1.745740669421566993E-14, -2.163587397393371835E-15, 5.000000000000000888 ) ) ;
#143 = CARTESIAN_POINT ( 'NONE',  ( 1.745740669421566993E-14, 1.124819836996385543E-32, 5.000000000000000888 ) ) ;
#144 = EDGE_LOOP ( 'NONE', ( #176 ) ) ;
#145 = CIRCLE ( 'NONE', #179, 0.6500000000000025757 ) ;
#146 = CYLINDRICAL_SURFACE ( 'NONE', #210, 0.6500000000000012434 ) ;
#147 = EDGE_CURVE ( 'NONE', #45, #45, #183, .T. ) ;
#148 = AXIS2_PLACEMENT_3D ( 'NONE', #260, #198, #242 ) ;
#149 = DIRECTION ( 'NONE',  ( 0.0000000000000000000, 0.0000000000000000000, 1.000000000000000000 ) ) ;
#150 = AXIS2_PLACEMENT_3D ( 'NONE', #42, #263, #97 ) ;
#151 = DIRECTION ( 'NONE',  ( 1.510825004591027855E-30, 1.000000000000000000, 4.327174794786742882E-16 ) ) ;
#152 = PERSON_AND_ORGANIZATION_ROLE ( 'creator' ) ;
#153 = DATE_AND_TIME ( #58, #86 ) ;
#154 = EDGE_LOOP ( 'NONE', ( #195 ) ) ;
#155 = EDGE_LOOP ( 'NONE', ( #256 ) ) ;
#156 = PERSON_AND_ORGANIZATION ( #65, #22 ) ;
#157 = ORIENTED_EDGE ( 'NONE', *, *, #89, .F. ) ;
#158 = ORIENTED_EDGE ( 'NONE', *, *, #100, .F. ) ;
#159 = DIRECTION ( 'NONE',  ( 3.491481338843133355E-15, -1.224646799147353207E-16, 1.000000000000000000 ) ) ;
#160 = DIRECTION ( 'NONE',  ( -3.491481338843133355E-15, 1.224646799147353207E-16, -1.000000000000000000 ) ) ;
#161 = CLOSED_SHELL ( 'NONE', ( #66, #108, #11, #220, #139, #21, #53 ) ) ;
#162 = DIRECTION ( 'NONE',  ( 4.275831445896958607E-31, 1.000000000000000000, 1.224646799147353207E-16 ) ) ;
#163 = DIRECTION ( 'NONE',  ( -4.275831445896958607E-31, -1.000000000000000000, -1.224646799147353207E-16 ) ) ;
#164 = MANIFOLD_SOLID_BREP ( 'Corps-Déplacer/Copier1[2]', #165 ) ;
#165 = CLOSED_SHELL ( 'NONE', ( #167, #193, #44 ) ) ;
#166 = PERSON_AND_ORGANIZATION ( #65, #22 ) ;
#167 = ADVANCED_FACE ( 'NONE', ( #138 ), #204, .T. ) ;
#168 = CARTESIAN_POINT ( 'NONE',  ( 2.793185071074506684E-14, -3.461739835829394306E-15, 8.000000000000000000 ) ) ;
#169 = AXIS2_PLACEMENT_3D ( 'NONE', #247, #126, #151 ) ;
#170 = LOCAL_TIME ( 13, 36, 37.00000000000000000, #25 ) ;
#171 = EDGE_LOOP ( 'NONE', ( #59 ) ) ;
#172 = APPROVAL_PERSON_ORGANIZATION ( #166, #116, #212 ) ;
#173 = EDGE_LOOP ( 'NONE', ( #216 ) ) ;
#174 = EDGE_CURVE ( 'NONE', #124, #124, #106, .T. ) ;
#175 = APPROVAL_STATUS ( 'not_yet_approved' ) ;
#176 = ORIENTED_EDGE ( 'NONE', *, *, #79, .F. ) ;
#177 = DATE_AND_TIME ( #72, #18 ) ;
#178 = CARTESIAN_POINT ( 'NONE',  ( 4.598253371210905107E-14, -5.698855058048172518E-15, 13.16992108780535276 ) ) ;
#179 = AXIS2_PLACEMENT_3D ( 'NONE', #168, #23, #227 ) ;
#180 = DIRECTION ( 'NONE',  ( -3.491481338843133355E-15, 1.224646799147353207E-16, -1.000000000000000000 ) ) ;
#181 = PLANE ( 'NONE',  #150 ) ;
#182 = DIRECTION ( 'NONE',  ( -3.491481338843133355E-15, 1.224646799147353207E-16, -1.000000000000000000 ) ) ;
#183 = CIRCLE ( 'NONE', #214, 1.499999999999993117 ) ;
#184 = LOCAL_TIME ( 13, 36, 37.00000000000000000, #32 ) ;
#185 = PRODUCT ( '976860', '976860', '', ( #46 ) ) ;
#186 = FACE_BOUND ( 'NONE', #155, .T. ) ;
#187 = PERSON_AND_ORGANIZATION ( #65, #22 ) ;
#188 = EDGE_CURVE ( 'NONE', #104, #104, #26, .T. ) ;
#189 = CIRCLE ( 'NONE', #230, 0.6500000000000012434 ) ;
#190 = CARTESIAN_POINT ( 'NONE',  ( 3.946734083698839445E-14, -1.499999999999998002, 11.30389568402089573 ) ) ;
#191 = VERTEX_POINT ( 'NONE', #105 ) ;
#192 = APPROVAL_ROLE ( '' ) ;
#193 = ADVANCED_FACE ( 'NONE', ( #125, #4 ), #232, .T. ) ;
#194 = DATE_TIME_ROLE ( 'creation_date' ) ;
#195 = ORIENTED_EDGE ( 'NONE', *, *, #174, .T. ) ;
#196 = ORIENTED_EDGE ( 'NONE', *, *, #188, .T. ) ;
#197 = FACE_BOUND ( 'NONE', #255, .T. ) ;
#198 = DIRECTION ( 'NONE',  ( 3.491481338843133355E-15, -1.224646799147353207E-16, 1.000000000000000000 ) ) ;
#199 = DIRECTION ( 'NONE',  ( 3.491481338843133355E-15, -1.224646799147353207E-16, 1.000000000000000000 ) ) ;
#200 = CYLINDRICAL_SURFACE ( 'NONE', #243, 1.499999999999993117 ) ;
#201 = APPLICATION_CONTEXT ( 'configuration controlled 3d designs of mechanical parts and assemblies' ) ;
#202 = VERTEX_POINT ( 'NONE', #208 ) ;
#203 = CARTESIAN_POINT ( 'NONE',  ( 1.326762908760390423E-13, 1.099999999999990319, 38.00000000000000000 ) ) ;
#204 = CONICAL_SURFACE ( 'NONE', #5, 1.499999999999990452, 1.221730476396026610 ) ;
#205 = VERTEX_POINT ( 'NONE', #128 ) ;
#206 = UNCERTAINTY_MEASURE_WITH_UNIT (LENGTH_MEASURE( 1.000000000000000082E-05 ), #20, 'distance_accuracy_value', 'NONE');
#207 = APPROVAL ( #258, 'UNSPECIFIED' ) ;
#208 = CARTESIAN_POINT ( 'NONE',  ( 8.260169325426376557E-16, -0.6500000000000012434, 0.2365806522730349026 ) ) ;
#209 = CARTESIAN_POINT ( 'NONE',  ( 0.0000000000000000000, 0.0000000000000000000, 0.0000000000000000000 ) ) ;
#210 = AXIS2_PLACEMENT_3D ( 'NONE', #209, #228, #248 ) ;
#211 = PERSON_AND_ORGANIZATION ( #65, #22 ) ;
#212 = APPROVAL_ROLE ( '' ) ;
#213 = PERSON_AND_ORGANIZATION_ROLE ( 'design_supplier' ) ;
#214 = AXIS2_PLACEMENT_3D ( 'NONE', #120, #14, #60 ) ;
#215 = CC_DESIGN_APPROVAL ( #207, ( #102 ) ) ;
#216 = ORIENTED_EDGE ( 'NONE', *, *, #234, .F. ) ;
#217 = PRODUCT_RELATED_PRODUCT_CATEGORY ( 'detail', '', ( #185 ) ) ;
#218 = FACE_OUTER_BOUND ( 'NONE', #154, .T. ) ;
#219 = DIRECTION ( 'NONE',  ( 1.550908467841230773E-30, 1.000000000000000000, 4.327174794786742389E-16 ) ) ;
#220 = ADVANCED_FACE ( 'NONE', ( #51, #129 ), #146, .T. ) ;
#221 = DIRECTION ( 'NONE',  ( 3.491481338843133355E-15, -4.327174794786742882E-16, 1.000000000000000000 ) ) ;
#222 = CARTESIAN_POINT ( 'NONE',  ( 2.793185071074506684E-14, -3.469446951953614189E-15, 8.000000000000000000 ) ) ;
#223 = CC_DESIGN_SECURITY_CLASSIFICATION ( #238, ( #102 ) ) ;
#224 = DIRECTION ( 'NONE',  ( -3.491481338843133355E-15, 1.224646799147353207E-16, -1.000000000000000000 ) ) ;
#225 = AXIS2_PLACEMENT_3D ( 'NONE', #81, #180, #245 ) ;
#226 = CC_DESIGN_PERSON_AND_ORGANIZATION_ASSIGNMENT ( #75, #152, ( #130 ) ) ;
#227 = DIRECTION ( 'NONE',  ( 0.0000000000000000000, 1.000000000000000000, 0.0000000000000000000 ) ) ;
#228 = DIRECTION ( 'NONE',  ( -3.491481338843133355E-15, 4.327174794786742882E-16, -1.000000000000000000 ) ) ;
#229 = APPLICATION_PROTOCOL_DEFINITION ( 'international standard', 'config_control_design', 1994, #41 ) ;
#230 = AXIS2_PLACEMENT_3D ( 'NONE', #142, #224, #80 ) ;
#231 = DIRECTION ( 'NONE',  ( -3.491481338843133355E-15, 1.224646799147353207E-16, -1.000000000000000000 ) ) ;
#232 = CYLINDRICAL_SURFACE ( 'NONE', #169, 0.6500000000000012434 ) ;
#233 = PERSON_AND_ORGANIZATION ( #65, #22 ) ;
#234 = EDGE_CURVE ( 'NONE', #191, #191, #145, .T. ) ;
#235 = DATE_AND_TIME ( #55, #70 ) ;
#236 = EDGE_LOOP ( 'NONE', ( #76 ) ) ;
#237 = PERSON_AND_ORGANIZATION_ROLE ( 'classification_officer' ) ;
#238 = SECURITY_CLASSIFICATION ( '', '', #27 ) ;
#239 = DIRECTION ( 'NONE',  ( 0.0000000000000000000, -1.000000000000000000, 0.0000000000000000000 ) ) ;
#240 = PLANE ( 'NONE',  #37 ) ;
#241 = EDGE_CURVE ( 'NONE', #202, #202, #96, .T. ) ;
#242 = DIRECTION ( 'NONE',  ( -4.275831445896958607E-31, -1.000000000000000000, -1.224646799147353207E-16 ) ) ;
#243 = AXIS2_PLACEMENT_3D ( 'NONE', #121, #160, #162 ) ;
#244 = FACE_OUTER_BOUND ( 'NONE', #88, .T. ) ;
#245 = DIRECTION ( 'NONE',  ( 0.0000000000000000000, 1.000000000000000000, 0.0000000000000000000 ) ) ;
#246 = AXIS2_PLACEMENT_3D ( 'NONE', #2, #85, #107 ) ;
#247 = CARTESIAN_POINT ( 'NONE',  ( 0.0000000000000000000, 0.0000000000000000000, 0.0000000000000000000 ) ) ;
#248 = DIRECTION ( 'NONE',  ( 1.510825004591027855E-30, 1.000000000000000000, 4.327174794786742882E-16 ) ) ;
#249 = CARTESIAN_POINT ( 'NONE',  ( 1.745740669421566993E-14, -0.6500000000000034639, 5.000000000000000888 ) ) ;
#250 = AXIS2_PLACEMENT_3D ( 'NONE', #15, #119, #99 ) ;
#251 = APPROVAL_PERSON_ORGANIZATION ( #233, #207, #192 ) ;
#252 = DIRECTION ( 'NONE',  ( 1.000000000000000000, 0.0000000000000000000, 0.0000000000000000000 ) ) ;
#253 = MANIFOLD_SOLID_BREP ( 'Corps-Déplacer/Copier1[1]', #161 ) ;
#254 = CC_DESIGN_PERSON_AND_ORGANIZATION_ASSIGNMENT ( #73, #52, ( #102 ) ) ;
#255 = EDGE_LOOP ( 'NONE', ( #56 ) ) ;
#256 = ORIENTED_EDGE ( 'NONE', *, *, #174, .F. ) ;
#257 = DATE_AND_TIME ( #110, #170 ) ;
#258 = APPROVAL_STATUS ( 'not_yet_approved' ) ;
#259 = DIRECTION ( 'NONE',  ( -3.491481338843133355E-15, 1.224646799147353207E-16, -1.000000000000000000 ) ) ;
#260 = CARTESIAN_POINT ( 'NONE',  ( 1.745740669421566993E-14, 1.124819836996385543E-32, 5.000000000000000888 ) ) ;
#261 = DIRECTION ( 'NONE',  ( 0.0000000000000000000, 1.000000000000000000, 0.0000000000000000000 ) ) ;
#262 = CARTESIAN_POINT ( 'NONE',  ( 1.312796983405018394E-13, -4.604671964794048513E-15, 37.60000000000000853 ) ) ;
#263 = DIRECTION ( 'NONE',  ( -3.491481338843133355E-15, 1.224646799147353207E-16, -1.000000000000000000 ) ) ;
ENDSEC;
END-ISO-10303-21;
