ISO-10303-21;
HEADER;
FILE_DESCRIPTION (( 'STEP AP203' ),
    '1' );
FILE_NAME ('976859.step',
    '2021-10-13T11:36:37',
    ( '' ),
    ( '' ),
    'SwSTEP 2.0',
    'SolidWorks 2019',
    '' );
FILE_SCHEMA (( 'CONFIG_CONTROL_DESIGN' ));
ENDSEC;

DATA;
#1 = LOCAL_TIME ( 13, 36, 37.00000000000000000, #37 ) ;
#2 = DIRECTION ( 'NONE',  ( 0.0000000000000000000, -1.000000000000000000, 0.0000000000000000000 ) ) ;
#3 = ADVANCED_FACE ( 'NONE', ( #96, #74 ), #190, .T. ) ;
#4 = CARTESIAN_POINT ( 'NONE',  ( 1.326762908760390423E-13, -4.653657836759941941E-15, 38.00000000000000000 ) ) ;
#5 = DIRECTION ( 'NONE',  ( 0.0000000000000000000, 1.000000000000000000, 0.0000000000000000000 ) ) ;
#6 = MANIFOLD_SOLID_BREP ( 'Corps-Déplacer/Copier1[2]', #47 ) ;
#7 = DIRECTION ( 'NONE',  ( -5.135813185032661930E-31, -1.000000000000000000, -1.445602896647348531E-16 ) ) ;
#8 = AXIS2_PLACEMENT_3D ( 'NONE', #90, #166, #2 ) ;
#9 = EDGE_CURVE ( 'NONE', #103, #103, #84, .T. ) ;
#10 = PLANE ( 'NONE',  #215 ) ;
#11 = EDGE_LOOP ( 'NONE', ( #169 ) ) ;
#12 = EDGE_LOOP ( 'NONE', ( #124 ) ) ;
#13 = CLOSED_SHELL ( 'NONE', ( #162, #225, #71, #118, #189, #59, #25 ) ) ;
#14 = CC_DESIGN_PERSON_AND_ORGANIZATION_ASSIGNMENT ( #241, #243, ( #182 ) ) ;
#15 = APPROVAL_ROLE ( '' ) ;
#16 = DIRECTION ( 'NONE',  ( 3.491481338843133355E-15, -1.224646799147353207E-16, 1.000000000000000000 ) ) ;
#17 = CARTESIAN_POINT ( 'NONE',  ( 2.793185071074506684E-14, 0.5999999999999990896, 8.000000000000000000 ) ) ;
#18 = PERSON_AND_ORGANIZATION_ROLE ( 'creator' ) ;
#19 = ORGANIZATION ( 'UNSPECIFIED', 'UNSPECIFIED', '' ) ;
#20 = COORDINATED_UNIVERSAL_TIME_OFFSET ( 1, 0, .AHEAD. ) ;
#21 = ADVANCED_BREP_SHAPE_REPRESENTATION ( '976859', ( #180, #6, #92 ), #116 ) ;
#22 = PERSON_AND_ORGANIZATION ( #70, #19 ) ;
#23 = PERSON_AND_ORGANIZATION_ROLE ( 'creator' ) ;
#24 = DIRECTION ( 'NONE',  ( -3.491481338843133355E-15, 1.224646799147353207E-16, -1.000000000000000000 ) ) ;
#25 = ADVANCED_FACE ( 'NONE', ( #122 ), #140, .F. ) ;
#26 = FACE_OUTER_BOUND ( 'NONE', #44, .T. ) ;
#27 = DIRECTION ( 'NONE',  ( 0.0000000000000000000, -1.000000000000000000, 0.0000000000000000000 ) ) ;
#28 = FACE_OUTER_BOUND ( 'NONE', #175, .T. ) ;
#29 = FACE_OUTER_BOUND ( 'NONE', #206, .T. ) ;
#30 = CIRCLE ( 'NONE', #36, 0.6340741737109343301 ) ;
#31 = CC_DESIGN_APPROVAL ( #97, ( #132 ) ) ;
#32 = APPROVAL_ROLE ( '' ) ;
#33 = DIRECTION ( 'NONE',  ( -3.491481338843133355E-15, 1.224646799147353207E-16, -1.000000000000000000 ) ) ;
#34 = VERTEX_POINT ( 'NONE', #105 ) ;
#35 = CARTESIAN_POINT ( 'NONE',  ( 1.745740669421566993E-14, 1.124819836996385543E-32, 5.000000000000000888 ) ) ;
#36 = AXIS2_PLACEMENT_3D ( 'NONE', #112, #110, #165 ) ;
#37 = COORDINATED_UNIVERSAL_TIME_OFFSET ( 1, 0, .AHEAD. ) ;
#38 = CIRCLE ( 'NONE', #174, 0.6000000000000025313 ) ;
#39 = APPROVAL_DATE_TIME ( #63, #65 ) ;
#40 = EDGE_CURVE ( 'NONE', #176, #176, #238, .T. ) ;
#41 = SHAPE_DEFINITION_REPRESENTATION ( #202, #21 ) ;
#42 = AXIS2_PLACEMENT_3D ( 'NONE', #54, #33, #252 ) ;
#43 = CARTESIAN_POINT ( 'NONE',  ( 2.793185071074506684E-14, -3.469446951953614189E-15, 8.000000000000000000 ) ) ;
#44 = EDGE_LOOP ( 'NONE', ( #150 ) ) ;
#45 = FACE_OUTER_BOUND ( 'NONE', #230, .T. ) ;
#46 = DESIGN_CONTEXT ( 'detailed design', #263, 'design' ) ;
#47 = CLOSED_SHELL ( 'NONE', ( #128, #3, #205 ) ) ;
#48 = DIRECTION ( 'NONE',  ( -3.491481338843133355E-15, 1.224646799147353207E-16, -1.000000000000000000 ) ) ;
#49 = CC_DESIGN_PERSON_AND_ORGANIZATION_ASSIGNMENT ( #177, #143, ( #132 ) ) ;
#50 = CARTESIAN_POINT ( 'NONE',  ( 4.663405299962110853E-14, -5.779601238985050824E-15, 13.35652362818379757 ) ) ;
#51 = DIRECTION ( 'NONE',  ( 4.275831445896958607E-31, 1.000000000000000000, 1.224646799147353207E-16 ) ) ;
#52 = ORIENTED_EDGE ( 'NONE', *, *, #55, .T. ) ;
#53 =( LENGTH_UNIT ( ) NAMED_UNIT ( * ) SI_UNIT ( .MILLI., .METRE. ) );
#54 = CARTESIAN_POINT ( 'NONE',  ( 1.312796983405018394E-13, -4.604671964794048513E-15, 37.60000000000000853 ) ) ;
#55 = EDGE_CURVE ( 'NONE', #258, #258, #30, .T. ) ;
#56 = CARTESIAN_POINT ( 'NONE',  ( 0.0000000000000000000, 0.0000000000000000000, 0.0000000000000000000 ) ) ;
#57 = APPLICATION_PROTOCOL_DEFINITION ( 'international standard', 'config_control_design', 1994, #214 ) ;
#58 = CIRCLE ( 'NONE', #8, 1.499999999999993117 ) ;
#59 = ADVANCED_FACE ( 'NONE', ( #151, #29 ), #195, .F. ) ;
#60 = APPROVAL_STATUS ( 'not_yet_approved' ) ;
#61 = SECURITY_CLASSIFICATION_LEVEL ( 'unclassified' ) ;
#62 = AXIS2_PLACEMENT_3D ( 'NONE', #56, #257, #173 ) ;
#63 = DATE_AND_TIME ( #147, #199 ) ;
#64 = CALENDAR_DATE ( 2021, 13, 10 ) ;
#65 = APPROVAL ( #160, 'UNSPECIFIED' ) ;
#66 = CARTESIAN_POINT ( 'NONE',  ( 7.624771685008964948E-16, -2.674409894274140768E-17, 0.2183821405597246024 ) ) ;
#67 = EDGE_LOOP ( 'NONE', ( #188 ) ) ;
#68 = DIRECTION ( 'NONE',  ( 3.491481338843133355E-15, -4.327174794786742882E-16, 1.000000000000000000 ) ) ;
#69 = DIRECTION ( 'NONE',  ( 3.491481338843133355E-15, -1.224646799147353207E-16, 1.000000000000000000 ) ) ;
#70 = PERSON ( 'UNSPECIFIED', 'UNSPECIFIED', 'UNSPECIFIED', ('UNSPECIFIED'), ('UNSPECIFIED'), ('UNSPECIFIED') ) ;
#71 = ADVANCED_FACE ( 'NONE', ( #45 ), #198, .F. ) ;
#72 = CARTESIAN_POINT ( 'NONE',  ( 0.0000000000000000000, 0.0000000000000000000, 0.0000000000000000000 ) ) ;
#73 = CARTESIAN_POINT ( 'NONE',  ( 0.0000000000000000000, 0.0000000000000000000, 0.0000000000000000000 ) ) ;
#74 = FACE_OUTER_BOUND ( 'NONE', #99, .T. ) ;
#75 = PERSON_AND_ORGANIZATION ( #70, #19 ) ;
#76 = ORIENTED_EDGE ( 'NONE', *, *, #40, .F. ) ;
#77 = CC_DESIGN_PERSON_AND_ORGANIZATION_ASSIGNMENT ( #22, #23, ( #182 ) ) ;
#78 = CALENDAR_DATE ( 2021, 13, 10 ) ;
#79 = APPROVAL_PERSON_ORGANIZATION ( #75, #65, #32 ) ;
#80 = ORIENTED_EDGE ( 'NONE', *, *, #152, .T. ) ;
#81 = CC_DESIGN_DATE_AND_TIME_ASSIGNMENT ( #137, #251, ( #104 ) ) ;
#82 = MECHANICAL_CONTEXT ( 'NONE', #214, 'mechanical' ) ;
#83 = AXIS2_PLACEMENT_3D ( 'NONE', #72, #155, #222 ) ;
#84 = CIRCLE ( 'NONE', #42, 1.499999999999995115 ) ;
#85 = CALENDAR_DATE ( 2021, 13, 10 ) ;
#86 = AXIS2_PLACEMENT_3D ( 'NONE', #183, #168, #130 ) ;
#87 = APPROVAL_PERSON_ORGANIZATION ( #109, #97, #127 ) ;
#88 = FACE_OUTER_BOUND ( 'NONE', #171, .T. ) ;
#89 = UNCERTAINTY_MEASURE_WITH_UNIT (LENGTH_MEASURE( 1.000000000000000082E-05 ), #53, 'distance_accuracy_value', 'NONE');
#90 = CARTESIAN_POINT ( 'NONE',  ( 4.011886012450045191E-14, -4.972139429616264603E-15, 11.49049822439933877 ) ) ;
#91 = DIRECTION ( 'NONE',  ( 0.0000000000000000000, -1.000000000000000000, 0.0000000000000000000 ) ) ;
#92 = AXIS2_PLACEMENT_3D ( 'NONE', #142, #256, #161 ) ;
#93 = DIRECTION ( 'NONE',  ( -3.491481338843133355E-15, 4.327174794786742882E-16, -1.000000000000000000 ) ) ;
#94 = CARTESIAN_POINT ( 'NONE',  ( 1.745740669421566993E-14, -2.163587397393371835E-15, 5.000000000000000888 ) ) ;
#95 = DIRECTION ( 'NONE',  ( 0.0000000000000000000, 1.000000000000000000, 0.0000000000000000000 ) ) ;
#96 = FACE_OUTER_BOUND ( 'NONE', #191, .T. ) ;
#97 = APPROVAL ( #218, 'UNSPECIFIED' ) ;
#98 = CARTESIAN_POINT ( 'NONE',  ( 4.011886012450045191E-14, -1.499999999999998002, 11.49049822439933877 ) ) ;
#99 = EDGE_LOOP ( 'NONE', ( #119 ) ) ;
#100 = VERTEX_POINT ( 'NONE', #259 ) ;
#101 = AXIS2_PLACEMENT_3D ( 'NONE', #114, #24, #247 ) ;
#102 = EDGE_LOOP ( 'NONE', ( #76 ) ) ;
#103 = VERTEX_POINT ( 'NONE', #212 ) ;
#104 = PRODUCT_DEFINITION ( 'UNKNOWN', '', #182, #46 ) ;
#105 = CARTESIAN_POINT ( 'NONE',  ( 7.624771685008961990E-16, -0.6000000000000011990, 0.2183821405597245191 ) ) ;
#106 = COORDINATED_UNIVERSAL_TIME_OFFSET ( 1, 0, .AHEAD. ) ;
#107 = CONICAL_SURFACE ( 'NONE', #255, 1.099999999999994760, 0.7853981633974602694 ) ;
#108 = EDGE_CURVE ( 'NONE', #100, #100, #167, .T. ) ;
#109 = PERSON_AND_ORGANIZATION ( #70, #19 ) ;
#110 = DIRECTION ( 'NONE',  ( -3.491481338843133355E-15, 4.327174794786742882E-16, -1.000000000000000000 ) ) ;
#111 = AXIS2_PLACEMENT_3D ( 'NONE', #73, #156, #51 ) ;
#112 = CARTESIAN_POINT ( 'NONE',  ( 2.883551257685771791E-14, -3.573735360667234739E-15, 8.258819045102521628 ) ) ;
#113 = CC_DESIGN_DATE_AND_TIME_ASSIGNMENT ( #196, #197, ( #132 ) ) ;
#114 = CARTESIAN_POINT ( 'NONE',  ( 1.745740669421566993E-14, -2.163587397393371835E-15, 5.000000000000000888 ) ) ;
#115 = CYLINDRICAL_SURFACE ( 'NONE', #83, 0.6000000000000011990 ) ;
#116 =( GEOMETRIC_REPRESENTATION_CONTEXT ( 3 ) GLOBAL_UNCERTAINTY_ASSIGNED_CONTEXT ( ( #89 ) ) GLOBAL_UNIT_ASSIGNED_CONTEXT ( ( #53, #232, #229 ) ) REPRESENTATION_CONTEXT ( 'NONE', 'WORKASPACE' ) );
#117 = CARTESIAN_POINT ( 'NONE',  ( 2.793185071074506684E-14, -3.461739835829394306E-15, 8.000000000000000000 ) ) ;
#118 = ADVANCED_FACE ( 'NONE', ( #26, #181 ), #115, .T. ) ;
#119 = ORIENTED_EDGE ( 'NONE', *, *, #244, .F. ) ;
#120 = CARTESIAN_POINT ( 'NONE',  ( 2.883551257685771791E-14, 0.6340741737109306664, 8.258819045102521628 ) ) ;
#121 = ORIENTED_EDGE ( 'NONE', *, *, #40, .T. ) ;
#122 = FACE_OUTER_BOUND ( 'NONE', #157, .T. ) ;
#123 = CIRCLE ( 'NONE', #129, 1.099999999999994760 ) ;
#124 = ORIENTED_EDGE ( 'NONE', *, *, #135, .T. ) ;
#125 = APPROVAL_DATE_TIME ( #253, #217 ) ;
#126 = AXIS2_PLACEMENT_3D ( 'NONE', #50, #68, #27 ) ;
#127 = APPROVAL_ROLE ( '' ) ;
#128 = ADVANCED_FACE ( 'NONE', ( #201 ), #179, .T. ) ;
#129 = AXIS2_PLACEMENT_3D ( 'NONE', #4, #170, #5 ) ;
#130 = DIRECTION ( 'NONE',  ( 4.275831445896958607E-31, 1.000000000000000000, 1.224646799147353207E-16 ) ) ;
#131 = FACE_BOUND ( 'NONE', #210, .T. ) ;
#132 = SECURITY_CLASSIFICATION ( '', '', #61 ) ;
#133 = CYLINDRICAL_SURFACE ( 'NONE', #111, 1.499999999999993117 ) ;
#134 = DIRECTION ( 'NONE',  ( -3.491481338843133355E-15, 1.224646799147353207E-16, -1.000000000000000000 ) ) ;
#135 = EDGE_CURVE ( 'NONE', #213, #213, #123, .T. ) ;
#136 = EDGE_LOOP ( 'NONE', ( #235 ) ) ;
#137 = DATE_AND_TIME ( #78, #248 ) ;
#138 = ORIENTED_EDGE ( 'NONE', *, *, #108, .T. ) ;
#139 = CARTESIAN_POINT ( 'NONE',  ( 1.326762908760390423E-13, 1.099999999999990319, 38.00000000000000000 ) ) ;
#140 = PLANE ( 'NONE',  #148 ) ;
#141 = PERSON_AND_ORGANIZATION ( #70, #19 ) ;
#142 = CARTESIAN_POINT ( 'NONE',  ( 0.0000000000000000000, 0.0000000000000000000, 0.0000000000000000000 ) ) ;
#143 = PERSON_AND_ORGANIZATION_ROLE ( 'classification_officer' ) ;
#144 = CC_DESIGN_PERSON_AND_ORGANIZATION_ASSIGNMENT ( #234, #240, ( #231 ) ) ;
#145 = CIRCLE ( 'NONE', #262, 0.6000000000000011990 ) ;
#146 = DATE_AND_TIME ( #85, #239 ) ;
#147 = CALENDAR_DATE ( 2021, 13, 10 ) ;
#148 = AXIS2_PLACEMENT_3D ( 'NONE', #35, #16, #158 ) ;
#149 = DIRECTION ( 'NONE',  ( -4.275831445896958607E-31, -1.000000000000000000, -1.224646799147353207E-16 ) ) ;
#150 = ORIENTED_EDGE ( 'NONE', *, *, #193, .T. ) ;
#151 = FACE_OUTER_BOUND ( 'NONE', #187, .T. ) ;
#152 = EDGE_CURVE ( 'NONE', #192, #192, #58, .T. ) ;
#153 = FACE_BOUND ( 'NONE', #12, .T. ) ;
#154 = AXIS2_PLACEMENT_3D ( 'NONE', #94, #134, #91 ) ;
#155 = DIRECTION ( 'NONE',  ( -3.491481338843133355E-15, 4.327174794786742882E-16, -1.000000000000000000 ) ) ;
#156 = DIRECTION ( 'NONE',  ( -3.491481338843133355E-15, 1.224646799147353207E-16, -1.000000000000000000 ) ) ;
#157 = EDGE_LOOP ( 'NONE', ( #138 ) ) ;
#158 = DIRECTION ( 'NONE',  ( -4.275831445896958607E-31, -1.000000000000000000, -1.224646799147353207E-16 ) ) ;
#159 = CC_DESIGN_APPROVAL ( #217, ( #104 ) ) ;
#160 = APPROVAL_STATUS ( 'not_yet_approved' ) ;
#161 = DIRECTION ( 'NONE',  ( 1.000000000000000000, 0.0000000000000000000, 0.0000000000000000000 ) ) ;
#162 = ADVANCED_FACE ( 'NONE', ( #28, #88 ), #133, .T. ) ;
#163 = APPROVAL_DATE_TIME ( #146, #97 ) ;
#164 = CONICAL_SURFACE ( 'NONE', #126, 2.000000000000000000, 0.2617993877991502960 ) ;
#165 = DIRECTION ( 'NONE',  ( 0.0000000000000000000, 1.000000000000000000, 0.0000000000000000000 ) ) ;
#166 = DIRECTION ( 'NONE',  ( 3.491481338843133355E-15, -4.327174794786742882E-16, 1.000000000000000000 ) ) ;
#167 = CIRCLE ( 'NONE', #101, 0.6000000000000011990 ) ;
#168 = DIRECTION ( 'NONE',  ( -3.491481338843133355E-15, 1.224646799147353207E-16, -1.000000000000000000 ) ) ;
#169 = ORIENTED_EDGE ( 'NONE', *, *, #108, .F. ) ;
#170 = DIRECTION ( 'NONE',  ( -3.491481338843133355E-15, 1.224646799147353207E-16, -1.000000000000000000 ) ) ;
#171 = EDGE_LOOP ( 'NONE', ( #254 ) ) ;
#172 = CALENDAR_DATE ( 2021, 13, 10 ) ;
#173 = DIRECTION ( 'NONE',  ( 1.510825004591028030E-30, 1.000000000000000000, 4.327174794786742389E-16 ) ) ;
#174 = AXIS2_PLACEMENT_3D ( 'NONE', #117, #203, #245 ) ;
#175 = EDGE_LOOP ( 'NONE', ( #80 ) ) ;
#176 = VERTEX_POINT ( 'NONE', #209 ) ;
#177 = PERSON_AND_ORGANIZATION ( #70, #19 ) ;
#178 = COORDINATED_UNIVERSAL_TIME_OFFSET ( 1, 0, .AHEAD. ) ;
#179 = CONICAL_SURFACE ( 'NONE', #219, 1.499999999999990452, 1.221730476396026610 ) ;
#180 = MANIFOLD_SOLID_BREP ( 'Corps-Déplacer/Copier1[1]', #13 ) ;
#181 = FACE_OUTER_BOUND ( 'NONE', #11, .T. ) ;
#182 = PRODUCT_DEFINITION_FORMATION_WITH_SPECIFIED_SOURCE ( 'ANY', '', #231, .NOT_KNOWN. ) ;
#183 = CARTESIAN_POINT ( 'NONE',  ( 1.326762908760390423E-13, 8.248678804640111472E-33, 38.00000000000000000 ) ) ;
#184 = DIRECTION ( 'NONE',  ( -3.491481338843133355E-15, 1.224646799147353207E-16, -1.000000000000000000 ) ) ;
#185 = DIRECTION ( 'NONE',  ( 3.491481338843133355E-15, -1.224646799147353207E-16, 1.000000000000000000 ) ) ;
#186 = FACE_OUTER_BOUND ( 'NONE', #102, .T. ) ;
#187 = EDGE_LOOP ( 'NONE', ( #221 ) ) ;
#188 = ORIENTED_EDGE ( 'NONE', *, *, #152, .F. ) ;
#189 = ADVANCED_FACE ( 'NONE', ( #131, #227 ), #164, .T. ) ;
#190 = CYLINDRICAL_SURFACE ( 'NONE', #62, 0.6000000000000011990 ) ;
#191 = EDGE_LOOP ( 'NONE', ( #121 ) ) ;
#192 = VERTEX_POINT ( 'NONE', #98 ) ;
#193 = EDGE_CURVE ( 'NONE', #237, #237, #38, .T. ) ;
#194 = PERSON_AND_ORGANIZATION ( #70, #19 ) ;
#195 = TOROIDAL_SURFACE ( 'NONE', #224, 1.600000000000002531, 1.000000000000000000 ) ;
#196 = DATE_AND_TIME ( #64, #216 ) ;
#197 = DATE_TIME_ROLE ( 'classification_date' ) ;
#198 = PLANE ( 'NONE',  #86 ) ;
#199 = LOCAL_TIME ( 13, 36, 37.00000000000000000, #261 ) ;
#200 = FACE_OUTER_BOUND ( 'NONE', #136, .T. ) ;
#201 = FACE_OUTER_BOUND ( 'NONE', #208, .T. ) ;
#202 = PRODUCT_DEFINITION_SHAPE ( 'NONE', 'NONE',  #104 ) ;
#203 = DIRECTION ( 'NONE',  ( -3.491481338843133355E-15, 4.327174794786742882E-16, -1.000000000000000000 ) ) ;
#204 = ORIENTED_EDGE ( 'NONE', *, *, #244, .T. ) ;
#205 = ADVANCED_FACE ( 'NONE', ( #186 ), #10, .T. ) ;
#206 = EDGE_LOOP ( 'NONE', ( #52 ) ) ;
#207 = APPLICATION_PROTOCOL_DEFINITION ( 'international standard', 'config_control_design', 1994, #263 ) ;
#208 = EDGE_LOOP ( 'NONE', ( #204 ) ) ;
#209 = CARTESIAN_POINT ( 'NONE',  ( 1.745740669421566993E-14, -0.6000000000000034195, 5.000000000000000888 ) ) ;
#210 = EDGE_LOOP ( 'NONE', ( #250 ) ) ;
#211 = CC_DESIGN_SECURITY_CLASSIFICATION ( #132, ( #182 ) ) ;
#212 = CARTESIAN_POINT ( 'NONE',  ( 1.312796983405018394E-13, 1.499999999999990452, 37.60000000000000853 ) ) ;
#213 = VERTEX_POINT ( 'NONE', #139 ) ;
#214 = APPLICATION_CONTEXT ( 'configuration controlled 3d designs of mechanical parts and assemblies' ) ;
#215 = AXIS2_PLACEMENT_3D ( 'NONE', #246, #69, #149 ) ;
#216 = LOCAL_TIME ( 13, 36, 37.00000000000000000, #20 ) ;
#217 = APPROVAL ( #60, 'UNSPECIFIED' ) ;
#218 = APPROVAL_STATUS ( 'not_yet_approved' ) ;
#219 = AXIS2_PLACEMENT_3D ( 'NONE', #249, #185, #7 ) ;
#220 = DIRECTION ( 'NONE',  ( -4.814824860968079999E-31, -1.000000000000000000, -1.355252715606877831E-16 ) ) ;
#221 = ORIENTED_EDGE ( 'NONE', *, *, #193, .F. ) ;
#222 = DIRECTION ( 'NONE',  ( 1.510825004591028030E-30, 1.000000000000000000, 4.327174794786742389E-16 ) ) ;
#223 = CARTESIAN_POINT ( 'NONE',  ( 1.326762908760390423E-13, -4.653657836759941941E-15, 38.00000000000000000 ) ) ;
#224 = AXIS2_PLACEMENT_3D ( 'NONE', #43, #93, #226 ) ;
#225 = ADVANCED_FACE ( 'NONE', ( #200, #153 ), #107, .T. ) ;
#226 = DIRECTION ( 'NONE',  ( 1.551679303672965697E-30, 1.000000000000000000, 4.327174794786743375E-16 ) ) ;
#227 = FACE_OUTER_BOUND ( 'NONE', #67, .T. ) ;
#228 = PRODUCT_RELATED_PRODUCT_CATEGORY ( 'detail', '', ( #231 ) ) ;
#229 =( NAMED_UNIT ( * ) SI_UNIT ( $, .STERADIAN. ) SOLID_ANGLE_UNIT ( ) );
#230 = EDGE_LOOP ( 'NONE', ( #233 ) ) ;
#231 = PRODUCT ( '976859', '976859', '', ( #82 ) ) ;
#232 =( NAMED_UNIT ( * ) PLANE_ANGLE_UNIT ( ) SI_UNIT ( $, .RADIAN. ) );
#233 = ORIENTED_EDGE ( 'NONE', *, *, #135, .F. ) ;
#234 = PERSON_AND_ORGANIZATION ( #70, #19 ) ;
#235 = ORIENTED_EDGE ( 'NONE', *, *, #9, .F. ) ;
#236 = CC_DESIGN_PERSON_AND_ORGANIZATION_ASSIGNMENT ( #194, #18, ( #104 ) ) ;
#237 = VERTEX_POINT ( 'NONE', #17 ) ;
#238 = CIRCLE ( 'NONE', #154, 0.6000000000000011990 ) ;
#239 = LOCAL_TIME ( 13, 36, 37.00000000000000000, #178 ) ;
#240 = PERSON_AND_ORGANIZATION_ROLE ( 'design_owner' ) ;
#241 = PERSON_AND_ORGANIZATION ( #70, #19 ) ;
#242 = CC_DESIGN_APPROVAL ( #65, ( #182 ) ) ;
#243 = PERSON_AND_ORGANIZATION_ROLE ( 'design_supplier' ) ;
#244 = EDGE_CURVE ( 'NONE', #34, #34, #145, .T. ) ;
#245 = DIRECTION ( 'NONE',  ( 0.0000000000000000000, 1.000000000000000000, 0.0000000000000000000 ) ) ;
#246 = CARTESIAN_POINT ( 'NONE',  ( 1.745740669421566993E-14, 1.124819836996385543E-32, 5.000000000000000888 ) ) ;
#247 = DIRECTION ( 'NONE',  ( 0.0000000000000000000, -1.000000000000000000, 0.0000000000000000000 ) ) ;
#248 = LOCAL_TIME ( 13, 36, 37.00000000000000000, #106 ) ;
#249 = CARTESIAN_POINT ( 'NONE',  ( 1.906192921252225756E-15, -6.686024735685297531E-17, 0.5459553513993069540 ) ) ;
#250 = ORIENTED_EDGE ( 'NONE', *, *, #55, .F. ) ;
#251 = DATE_TIME_ROLE ( 'creation_date' ) ;
#252 = DIRECTION ( 'NONE',  ( 0.0000000000000000000, 1.000000000000000000, 0.0000000000000000000 ) ) ;
#253 = DATE_AND_TIME ( #172, #1 ) ;
#254 = ORIENTED_EDGE ( 'NONE', *, *, #9, .T. ) ;
#255 = AXIS2_PLACEMENT_3D ( 'NONE', #223, #48, #95 ) ;
#256 = DIRECTION ( 'NONE',  ( 0.0000000000000000000, 0.0000000000000000000, 1.000000000000000000 ) ) ;
#257 = DIRECTION ( 'NONE',  ( -3.491481338843133355E-15, 4.327174794786742882E-16, -1.000000000000000000 ) ) ;
#258 = VERTEX_POINT ( 'NONE', #120 ) ;
#259 = CARTESIAN_POINT ( 'NONE',  ( 1.745740669421566993E-14, -0.6000000000000034195, 5.000000000000000888 ) ) ;
#260 = APPROVAL_PERSON_ORGANIZATION ( #141, #217, #15 ) ;
#261 = COORDINATED_UNIVERSAL_TIME_OFFSET ( 1, 0, .AHEAD. ) ;
#262 = AXIS2_PLACEMENT_3D ( 'NONE', #66, #184, #220 ) ;
#263 = APPLICATION_CONTEXT ( 'configuration controlled 3d designs of mechanical parts and assemblies' ) ;
ENDSEC;
END-ISO-10303-21;
