ISO-10303-21;
HEADER;
FILE_DESCRIPTION (( 'STEP AP203' ),
    '1' );
FILE_NAME ('976858.step',
    '2021-10-13T11:36:36',
    ( '' ),
    ( '' ),
    'SwSTEP 2.0',
    'SolidWorks 2019',
    '' );
FILE_SCHEMA (( 'CONFIG_CONTROL_DESIGN' ));
ENDSEC;

DATA;
#1 = ADVANCED_FACE ( 'NONE', ( #207 ), #230, .T. ) ;
#2 = DATE_AND_TIME ( #249, #140 ) ;
#3 = CARTESIAN_POINT ( 'NONE',  ( 1.326762908760390423E-13, 1.099999999999990319, 38.00000000000000000 ) ) ;
#4 = EDGE_LOOP ( 'NONE', ( #228 ) ) ;
#5 = CIRCLE ( 'NONE', #106, 1.499999999999993117 ) ;
#6 = FACE_OUTER_BOUND ( 'NONE', #108, .T. ) ;
#7 = DIRECTION ( 'NONE',  ( 4.275831445896958607E-31, 1.000000000000000000, 1.224646799147353207E-16 ) ) ;
#8 = APPROVAL_PERSON_ORGANIZATION ( #20, #205, #95 ) ;
#9 = FACE_OUTER_BOUND ( 'NONE', #44, .T. ) ;
#10 = PLANE ( 'NONE',  #22 ) ;
#11 = CARTESIAN_POINT ( 'NONE',  ( 1.745740669421566993E-14, -0.5500000000000033751, 5.000000000000000888 ) ) ;
#12 = CC_DESIGN_DATE_AND_TIME_ASSIGNMENT ( #136, #200, ( #229 ) ) ;
#13 = DIRECTION ( 'NONE',  ( -3.491481338843133355E-15, 1.224646799147353207E-16, -1.000000000000000000 ) ) ;
#14 = VERTEX_POINT ( 'NONE', #67 ) ;
#15 = DIRECTION ( 'NONE',  ( 0.0000000000000000000, 1.000000000000000000, 0.0000000000000000000 ) ) ;
#16 = ADVANCED_FACE ( 'NONE', ( #146 ), #235, .F. ) ;
#17 = AXIS2_PLACEMENT_3D ( 'NONE', #52, #176, #188 ) ;
#18 = PERSON_AND_ORGANIZATION ( #165, #259 ) ;
#19 = EDGE_LOOP ( 'NONE', ( #202 ) ) ;
#20 = PERSON_AND_ORGANIZATION ( #165, #259 ) ;
#21 = EDGE_LOOP ( 'NONE', ( #210 ) ) ;
#22 = AXIS2_PLACEMENT_3D ( 'NONE', #184, #189, #69 ) ;
#23 = COORDINATED_UNIVERSAL_TIME_OFFSET ( 1, 0, .AHEAD. ) ;
#24 = ORIENTED_EDGE ( 'NONE', *, *, #152, .F. ) ;
#25 = APPROVAL_DATE_TIME ( #138, #257 ) ;
#26 = APPROVAL ( #133, 'UNSPECIFIED' ) ;
#27 = AXIS2_PLACEMENT_3D ( 'NONE', #148, #254, #215 ) ;
#28 = FACE_OUTER_BOUND ( 'NONE', #80, .T. ) ;
#29 = FACE_BOUND ( 'NONE', #122, .T. ) ;
#30 = ORIENTED_EDGE ( 'NONE', *, *, #103, .F. ) ;
#31 = PRODUCT_DEFINITION_FORMATION_WITH_SPECIFIED_SOURCE ( 'ANY', '', #195, .NOT_KNOWN. ) ;
#32 = FACE_BOUND ( 'NONE', #250, .T. ) ;
#33 = DIRECTION ( 'NONE',  ( 3.491481338843133355E-15, -4.327174794786742882E-16, 1.000000000000000000 ) ) ;
#34 = CC_DESIGN_APPROVAL ( #26, ( #229 ) ) ;
#35 = APPLICATION_CONTEXT ( 'configuration controlled 3d designs of mechanical parts and assemblies' ) ;
#36 = LOCAL_TIME ( 13, 36, 36.00000000000000000, #23 ) ;
#37 = EDGE_CURVE ( 'NONE', #155, #155, #117, .T. ) ;
#38 = APPROVAL_DATE_TIME ( #221, #26 ) ;
#39 = PERSON_AND_ORGANIZATION_ROLE ( 'classification_officer' ) ;
#40 = CC_DESIGN_DATE_AND_TIME_ASSIGNMENT ( #2, #61, ( #51 ) ) ;
#41 = VERTEX_POINT ( 'NONE', #209 ) ;
#42 = PERSON_AND_ORGANIZATION ( #165, #259 ) ;
#43 = DIRECTION ( 'NONE',  ( 0.0000000000000000000, 1.000000000000000000, 0.0000000000000000000 ) ) ;
#44 = EDGE_LOOP ( 'NONE', ( #30 ) ) ;
#45 = AXIS2_PLACEMENT_3D ( 'NONE', #164, #208, #86 ) ;
#46 = AXIS2_PLACEMENT_3D ( 'NONE', #218, #116, #219 ) ;
#47 = LOCAL_TIME ( 13, 36, 36.00000000000000000, #245 ) ;
#48 = CARTESIAN_POINT ( 'NONE',  ( 6.989374044591552353E-16, -2.451542403084628755E-17, 0.2001836288464142188 ) ) ;
#49 = EDGE_LOOP ( 'NONE', ( #55 ) ) ;
#50 = AXIS2_PLACEMENT_3D ( 'NONE', #104, #33, #109 ) ;
#51 = PRODUCT_DEFINITION ( 'UNKNOWN', '', #31, #204 ) ;
#52 = CARTESIAN_POINT ( 'NONE',  ( 0.0000000000000000000, 0.0000000000000000000, 0.0000000000000000000 ) ) ;
#53 = CONICAL_SURFACE ( 'NONE', #212, 1.099999999999994760, 0.7853981633974602694 ) ;
#54 = CALENDAR_DATE ( 2021, 13, 10 ) ;
#55 = ORIENTED_EDGE ( 'NONE', *, *, #124, .T. ) ;
#56 = ADVANCED_FACE ( 'NONE', ( #28 ), #239, .T. ) ;
#57 = CARTESIAN_POINT ( 'NONE',  ( 0.0000000000000000000, 0.0000000000000000000, 0.0000000000000000000 ) ) ;
#58 = APPROVAL_DATE_TIME ( #82, #205 ) ;
#59 = EDGE_LOOP ( 'NONE', ( #180 ) ) ;
#60 = CIRCLE ( 'NONE', #88, 1.499999999999995115 ) ;
#61 = DATE_TIME_ROLE ( 'creation_date' ) ;
#62 = CC_DESIGN_PERSON_AND_ORGANIZATION_ASSIGNMENT ( #135, #175, ( #31 ) ) ;
#63 = CARTESIAN_POINT ( 'NONE',  ( 1.312796983405018394E-13, -4.604671964794048513E-15, 37.60000000000000853 ) ) ;
#64 = ADVANCED_FACE ( 'NONE', ( #29, #6 ), #161, .T. ) ;
#65 = CARTESIAN_POINT ( 'NONE',  ( 1.326762908760390423E-13, -4.653657836759941941E-15, 38.00000000000000000 ) ) ;
#66 = DIRECTION ( 'NONE',  ( 3.491481338843133355E-15, -1.224646799147353207E-16, 1.000000000000000000 ) ) ;
#67 = CARTESIAN_POINT ( 'NONE',  ( 1.312796983405018394E-13, 1.499999999999990452, 37.60000000000000853 ) ) ;
#68 = ADVANCED_FACE ( 'NONE', ( #127 ), #10, .F. ) ;
#69 = DIRECTION ( 'NONE',  ( -4.275831445896958607E-31, -1.000000000000000000, -1.224646799147353207E-16 ) ) ;
#70 =( NAMED_UNIT ( * ) SI_UNIT ( $, .STERADIAN. ) SOLID_ANGLE_UNIT ( ) );
#71 = CARTESIAN_POINT ( 'NONE',  ( 2.793185071074506684E-14, -3.461739835829394306E-15, 8.000000000000000000 ) ) ;
#72 = LOCAL_TIME ( 13, 36, 36.00000000000000000, #141 ) ;
#73 = CC_DESIGN_PERSON_AND_ORGANIZATION_ASSIGNMENT ( #197, #248, ( #195 ) ) ;
#74 = MANIFOLD_SOLID_BREP ( 'Corps-Déplacer/Copier1[2]', #178 ) ;
#75 = FACE_OUTER_BOUND ( 'NONE', #137, .T. ) ;
#76 = COORDINATED_UNIVERSAL_TIME_OFFSET ( 1, 0, .AHEAD. ) ;
#77 = CC_DESIGN_PERSON_AND_ORGANIZATION_ASSIGNMENT ( #18, #223, ( #51 ) ) ;
#78 = PERSON_AND_ORGANIZATION ( #165, #259 ) ;
#79 = MANIFOLD_SOLID_BREP ( 'Corps-Déplacer/Copier1[1]', #234 ) ;
#80 = EDGE_LOOP ( 'NONE', ( #224 ) ) ;
#81 = ORIENTED_EDGE ( 'NONE', *, *, #115, .F. ) ;
#82 = DATE_AND_TIME ( #98, #47 ) ;
#83 = CIRCLE ( 'NONE', #252, 0.5500000000000012657 ) ;
#84 = EDGE_CURVE ( 'NONE', #128, #128, #83, .T. ) ;
#85 = ORIENTED_EDGE ( 'NONE', *, *, #139, .T. ) ;
#86 = DIRECTION ( 'NONE',  ( 4.275831445896958607E-31, 1.000000000000000000, 1.224646799147353207E-16 ) ) ;
#87 = DIRECTION ( 'NONE',  ( -3.491481338843133355E-15, 1.224646799147353207E-16, -1.000000000000000000 ) ) ;
#88 = AXIS2_PLACEMENT_3D ( 'NONE', #63, #89, #15 ) ;
#89 = DIRECTION ( 'NONE',  ( -3.491481338843133355E-15, 1.224646799147353207E-16, -1.000000000000000000 ) ) ;
#90 = CARTESIAN_POINT ( 'NONE',  ( 2.793185071074506684E-14, 0.5499999999999989342, 8.000000000000000000 ) ) ;
#91 = FACE_OUTER_BOUND ( 'NONE', #19, .T. ) ;
#92 =( GEOMETRIC_REPRESENTATION_CONTEXT ( 3 ) GLOBAL_UNCERTAINTY_ASSIGNED_CONTEXT ( ( #162 ) ) GLOBAL_UNIT_ASSIGNED_CONTEXT ( ( #186, #242, #70 ) ) REPRESENTATION_CONTEXT ( 'NONE', 'WORKASPACE' ) );
#93 = FACE_OUTER_BOUND ( 'NONE', #260, .T. ) ;
#94 = ADVANCED_FACE ( 'NONE', ( #91, #211 ), #149, .T. ) ;
#95 = APPROVAL_ROLE ( '' ) ;
#96 = ADVANCED_FACE ( 'NONE', ( #9, #32 ), #53, .T. ) ;
#97 = ORIENTED_EDGE ( 'NONE', *, *, #124, .F. ) ;
#98 = CALENDAR_DATE ( 2021, 13, 10 ) ;
#99 = ORIENTED_EDGE ( 'NONE', *, *, #174, .F. ) ;
#100 = APPROVAL_ROLE ( '' ) ;
#101 = DIRECTION ( 'NONE',  ( 0.0000000000000000000, 0.0000000000000000000, 1.000000000000000000 ) ) ;
#102 = ORIENTED_EDGE ( 'NONE', *, *, #84, .F. ) ;
#103 = EDGE_CURVE ( 'NONE', #14, #14, #60, .T. ) ;
#104 = CARTESIAN_POINT ( 'NONE',  ( 4.728557228713317229E-14, -5.860347419921928342E-15, 13.54312616856224061 ) ) ;
#105 = DIRECTION ( 'NONE',  ( 0.0000000000000000000, -1.000000000000000000, 0.0000000000000000000 ) ) ;
#106 = AXIS2_PLACEMENT_3D ( 'NONE', #169, #255, #216 ) ;
#107 = CARTESIAN_POINT ( 'NONE',  ( 0.0000000000000000000, 0.0000000000000000000, 0.0000000000000000000 ) ) ;
#108 = EDGE_LOOP ( 'NONE', ( #99 ) ) ;
#109 = DIRECTION ( 'NONE',  ( 0.0000000000000000000, -1.000000000000000000, 0.0000000000000000000 ) ) ;
#110 = VERTEX_POINT ( 'NONE', #3 ) ;
#111 = CC_DESIGN_PERSON_AND_ORGANIZATION_ASSIGNMENT ( #78, #123, ( #31 ) ) ;
#112 = FACE_OUTER_BOUND ( 'NONE', #247, .T. ) ;
#113 = FACE_OUTER_BOUND ( 'NONE', #59, .T. ) ;
#114 = AXIS2_PLACEMENT_3D ( 'NONE', #185, #253, #7 ) ;
#115 = EDGE_CURVE ( 'NONE', #237, #237, #236, .T. ) ;
#116 = DIRECTION ( 'NONE',  ( -3.491481338843133355E-15, 1.224646799147353207E-16, -1.000000000000000000 ) ) ;
#117 = CIRCLE ( 'NONE', #125, 0.5500000000000012657 ) ;
#118 = DIRECTION ( 'NONE',  ( 1.552480368360846608E-30, 1.000000000000000000, 4.327174794786742882E-16 ) ) ;
#119 = SHAPE_DEFINITION_REPRESENTATION ( #183, #181 ) ;
#120 = APPROVAL_STATUS ( 'not_yet_approved' ) ;
#121 = CIRCLE ( 'NONE', #129, 1.099999999999994760 ) ;
#122 = EDGE_LOOP ( 'NONE', ( #24 ) ) ;
#123 = PERSON_AND_ORGANIZATION_ROLE ( 'design_supplier' ) ;
#124 = EDGE_CURVE ( 'NONE', #131, #131, #226, .T. ) ;
#125 = AXIS2_PLACEMENT_3D ( 'NONE', #48, #145, #130 ) ;
#126 = CARTESIAN_POINT ( 'NONE',  ( 1.745740669421566993E-14, 1.124819836996385543E-32, 5.000000000000000888 ) ) ;
#127 = FACE_OUTER_BOUND ( 'NONE', #49, .T. ) ;
#128 = VERTEX_POINT ( 'NONE', #11 ) ;
#129 = AXIS2_PLACEMENT_3D ( 'NONE', #258, #151, #43 ) ;
#130 = DIRECTION ( 'NONE',  ( -3.501690807976784259E-31, -1.000000000000000000, -9.856383386231835408E-17 ) ) ;
#131 = VERTEX_POINT ( 'NONE', #214 ) ;
#132 = AXIS2_PLACEMENT_3D ( 'NONE', #187, #213, #233 ) ;
#133 = APPROVAL_STATUS ( 'not_yet_approved' ) ;
#134 = CIRCLE ( 'NONE', #27, 0.5840741737109341747 ) ;
#135 = PERSON_AND_ORGANIZATION ( #165, #259 ) ;
#136 = DATE_AND_TIME ( #251, #72 ) ;
#137 = EDGE_LOOP ( 'NONE', ( #97 ) ) ;
#138 = DATE_AND_TIME ( #54, #143 ) ;
#139 = EDGE_CURVE ( 'NONE', #110, #110, #121, .T. ) ;
#140 = LOCAL_TIME ( 13, 36, 36.00000000000000000, #263 ) ;
#141 = COORDINATED_UNIVERSAL_TIME_OFFSET ( 1, 0, .AHEAD. ) ;
#142 = EDGE_LOOP ( 'NONE', ( #166 ) ) ;
#143 = LOCAL_TIME ( 13, 36, 36.00000000000000000, #76 ) ;
#144 = EDGE_LOOP ( 'NONE', ( #262 ) ) ;
#145 = DIRECTION ( 'NONE',  ( -3.491481338843133355E-15, 1.224646799147353207E-16, -1.000000000000000000 ) ) ;
#146 = FACE_OUTER_BOUND ( 'NONE', #142, .T. ) ;
#147 = CC_DESIGN_APPROVAL ( #205, ( #31 ) ) ;
#148 = CARTESIAN_POINT ( 'NONE',  ( 2.883551257685771791E-14, -3.573735360667234739E-15, 8.258819045102521628 ) ) ;
#149 = CYLINDRICAL_SURFACE ( 'NONE', #114, 1.499999999999993117 ) ;
#150 = CARTESIAN_POINT ( 'NONE',  ( 2.793185071074506684E-14, -3.469446951953614189E-15, 8.000000000000000000 ) ) ;
#151 = DIRECTION ( 'NONE',  ( -3.491481338843133355E-15, 1.224646799147353207E-16, -1.000000000000000000 ) ) ;
#152 = EDGE_CURVE ( 'NONE', #158, #158, #134, .T. ) ;
#153 = AXIS2_PLACEMENT_3D ( 'NONE', #126, #66, #238 ) ;
#154 = APPROVAL_STATUS ( 'not_yet_approved' ) ;
#155 = VERTEX_POINT ( 'NONE', #246 ) ;
#156 = ADVANCED_FACE ( 'NONE', ( #113, #190 ), #170, .T. ) ;
#157 = APPLICATION_PROTOCOL_DEFINITION ( 'international standard', 'config_control_design', 1994, #172 ) ;
#158 = VERTEX_POINT ( 'NONE', #182 ) ;
#159 = PERSON_AND_ORGANIZATION ( #165, #259 ) ;
#160 = CC_DESIGN_APPROVAL ( #257, ( #51 ) ) ;
#161 = CONICAL_SURFACE ( 'NONE', #50, 2.000000000000000444, 0.2617993877991502960 ) ;
#162 = UNCERTAINTY_MEASURE_WITH_UNIT (LENGTH_MEASURE( 1.000000000000000082E-05 ), #186, 'distance_accuracy_value', 'NONE');
#163 = DIRECTION ( 'NONE',  ( 0.0000000000000000000, 1.000000000000000000, 0.0000000000000000000 ) ) ;
#164 = CARTESIAN_POINT ( 'NONE',  ( 1.326762908760390423E-13, 8.248678804640111472E-33, 38.00000000000000000 ) ) ;
#165 = PERSON ( 'UNSPECIFIED', 'UNSPECIFIED', 'UNSPECIFIED', ('UNSPECIFIED'), ('UNSPECIFIED'), ('UNSPECIFIED') ) ;
#166 = ORIENTED_EDGE ( 'NONE', *, *, #139, .F. ) ;
#167 = TOROIDAL_SURFACE ( 'NONE', #261, 1.550000000000002265, 1.000000000000000000 ) ;
#168 = CC_DESIGN_PERSON_AND_ORGANIZATION_ASSIGNMENT ( #159, #39, ( #229 ) ) ;
#169 = CARTESIAN_POINT ( 'NONE',  ( 4.077037941201250937E-14, -5.052885610553141332E-15, 11.67710076477778181 ) ) ;
#170 = CYLINDRICAL_SURFACE ( 'NONE', #201, 0.5500000000000012657 ) ;
#171 = FACE_OUTER_BOUND ( 'NONE', #4, .T. ) ;
#172 = APPLICATION_CONTEXT ( 'configuration controlled 3d designs of mechanical parts and assemblies' ) ;
#173 = AXIS2_PLACEMENT_3D ( 'NONE', #71, #191, #217 ) ;
#174 = EDGE_CURVE ( 'NONE', #41, #41, #5, .T. ) ;
#175 = PERSON_AND_ORGANIZATION_ROLE ( 'creator' ) ;
#176 = DIRECTION ( 'NONE',  ( -3.491481338843133355E-15, 4.327174794786742882E-16, -1.000000000000000000 ) ) ;
#177 = ORIENTED_EDGE ( 'NONE', *, *, #115, .T. ) ;
#178 = CLOSED_SHELL ( 'NONE', ( #56, #156, #1 ) ) ;
#179 = CALENDAR_DATE ( 2021, 13, 10 ) ;
#180 = ORIENTED_EDGE ( 'NONE', *, *, #84, .T. ) ;
#181 = ADVANCED_BREP_SHAPE_REPRESENTATION ( '976858', ( #79, #74, #206 ), #92 ) ;
#182 = CARTESIAN_POINT ( 'NONE',  ( 2.883551257685771791E-14, 0.5840741737109306220, 8.258819045102521628 ) ) ;
#183 = PRODUCT_DEFINITION_SHAPE ( 'NONE', 'NONE',  #51 ) ;
#184 = CARTESIAN_POINT ( 'NONE',  ( 1.745740669421566993E-14, 1.124819836996385543E-32, 5.000000000000000888 ) ) ;
#185 = CARTESIAN_POINT ( 'NONE',  ( 0.0000000000000000000, 0.0000000000000000000, 0.0000000000000000000 ) ) ;
#186 =( LENGTH_UNIT ( ) NAMED_UNIT ( * ) SI_UNIT ( .MILLI., .METRE. ) );
#187 = CARTESIAN_POINT ( 'NONE',  ( 1.906192921252225756E-15, -6.686024735685297531E-17, 0.5459553513993069540 ) ) ;
#188 = DIRECTION ( 'NONE',  ( 1.510825004591027679E-30, 1.000000000000000000, 4.327174794786742389E-16 ) ) ;
#189 = DIRECTION ( 'NONE',  ( 3.491481338843133355E-15, -1.224646799147353207E-16, 1.000000000000000000 ) ) ;
#190 = FACE_OUTER_BOUND ( 'NONE', #21, .T. ) ;
#191 = DIRECTION ( 'NONE',  ( -3.491481338843133355E-15, 4.327174794786742882E-16, -1.000000000000000000 ) ) ;
#192 = APPROVAL_PERSON_ORGANIZATION ( #42, #257, #100 ) ;
#193 = DIRECTION ( 'NONE',  ( 1.510825004591027679E-30, 1.000000000000000000, 4.327174794786742389E-16 ) ) ;
#194 = DIRECTION ( 'NONE',  ( 1.000000000000000000, 0.0000000000000000000, 0.0000000000000000000 ) ) ;
#195 = PRODUCT ( '976858', '976858', '', ( #225 ) ) ;
#196 = CYLINDRICAL_SURFACE ( 'NONE', #17, 0.5500000000000012657 ) ;
#197 = PERSON_AND_ORGANIZATION ( #165, #259 ) ;
#198 = EDGE_LOOP ( 'NONE', ( #102 ) ) ;
#199 = DIRECTION ( 'NONE',  ( -3.491481338843133355E-15, 4.327174794786742882E-16, -1.000000000000000000 ) ) ;
#200 = DATE_TIME_ROLE ( 'classification_date' ) ;
#201 = AXIS2_PLACEMENT_3D ( 'NONE', #107, #199, #193 ) ;
#202 = ORIENTED_EDGE ( 'NONE', *, *, #174, .T. ) ;
#203 = SECURITY_CLASSIFICATION_LEVEL ( 'unclassified' ) ;
#204 = DESIGN_CONTEXT ( 'detailed design', #172, 'design' ) ;
#205 = APPROVAL ( #120, 'UNSPECIFIED' ) ;
#206 = AXIS2_PLACEMENT_3D ( 'NONE', #57, #101, #194 ) ;
#207 = FACE_OUTER_BOUND ( 'NONE', #198, .T. ) ;
#208 = DIRECTION ( 'NONE',  ( -3.491481338843133355E-15, 1.224646799147353207E-16, -1.000000000000000000 ) ) ;
#209 = CARTESIAN_POINT ( 'NONE',  ( 4.077037941201250937E-14, -1.499999999999998002, 11.67710076477778181 ) ) ;
#210 = ORIENTED_EDGE ( 'NONE', *, *, #37, .F. ) ;
#211 = FACE_OUTER_BOUND ( 'NONE', #144, .T. ) ;
#212 = AXIS2_PLACEMENT_3D ( 'NONE', #65, #87, #163 ) ;
#213 = DIRECTION ( 'NONE',  ( 3.491481338843133355E-15, -1.224646799147353207E-16, 1.000000000000000000 ) ) ;
#214 = CARTESIAN_POINT ( 'NONE',  ( 1.745740669421566993E-14, -0.5500000000000033751, 5.000000000000000888 ) ) ;
#215 = DIRECTION ( 'NONE',  ( 0.0000000000000000000, 1.000000000000000000, 0.0000000000000000000 ) ) ;
#216 = DIRECTION ( 'NONE',  ( 0.0000000000000000000, -1.000000000000000000, 0.0000000000000000000 ) ) ;
#217 = DIRECTION ( 'NONE',  ( 0.0000000000000000000, 1.000000000000000000, 0.0000000000000000000 ) ) ;
#218 = CARTESIAN_POINT ( 'NONE',  ( 1.745740669421566993E-14, -2.163587397393371835E-15, 5.000000000000000888 ) ) ;
#219 = DIRECTION ( 'NONE',  ( 0.0000000000000000000, -1.000000000000000000, 0.0000000000000000000 ) ) ;
#220 = CC_DESIGN_SECURITY_CLASSIFICATION ( #229, ( #31 ) ) ;
#221 = DATE_AND_TIME ( #179, #36 ) ;
#222 = APPROVAL_ROLE ( '' ) ;
#223 = PERSON_AND_ORGANIZATION_ROLE ( 'creator' ) ;
#224 = ORIENTED_EDGE ( 'NONE', *, *, #37, .T. ) ;
#225 = MECHANICAL_CONTEXT ( 'NONE', #35, 'mechanical' ) ;
#226 = CIRCLE ( 'NONE', #46, 0.5500000000000012657 ) ;
#227 = PERSON_AND_ORGANIZATION ( #165, #259 ) ;
#228 = ORIENTED_EDGE ( 'NONE', *, *, #152, .T. ) ;
#229 = SECURITY_CLASSIFICATION ( '', '', #203 ) ;
#230 = PLANE ( 'NONE',  #153 ) ;
#231 = ADVANCED_FACE ( 'NONE', ( #93, #171 ), #167, .F. ) ;
#232 = CARTESIAN_POINT ( 'NONE',  ( 1.745740669421566993E-14, -2.163587397393371835E-15, 5.000000000000000888 ) ) ;
#233 = DIRECTION ( 'NONE',  ( -5.135813185032661930E-31, -1.000000000000000000, -1.445602896647348531E-16 ) ) ;
#234 = CLOSED_SHELL ( 'NONE', ( #94, #96, #16, #241, #64, #231, #68 ) ) ;
#235 = PLANE ( 'NONE',  #45 ) ;
#236 = CIRCLE ( 'NONE', #173, 0.5500000000000023759 ) ;
#237 = VERTEX_POINT ( 'NONE', #90 ) ;
#238 = DIRECTION ( 'NONE',  ( -4.275831445896958607E-31, -1.000000000000000000, -1.224646799147353207E-16 ) ) ;
#239 = CONICAL_SURFACE ( 'NONE', #132, 1.499999999999990452, 1.221730476396026610 ) ;
#240 = DIRECTION ( 'NONE',  ( -3.491481338843133355E-15, 4.327174794786742882E-16, -1.000000000000000000 ) ) ;
#241 = ADVANCED_FACE ( 'NONE', ( #112, #75 ), #196, .T. ) ;
#242 =( NAMED_UNIT ( * ) PLANE_ANGLE_UNIT ( ) SI_UNIT ( $, .RADIAN. ) );
#243 = PRODUCT_RELATED_PRODUCT_CATEGORY ( 'detail', '', ( #195 ) ) ;
#244 = APPROVAL_PERSON_ORGANIZATION ( #227, #26, #222 ) ;
#245 = COORDINATED_UNIVERSAL_TIME_OFFSET ( 1, 0, .AHEAD. ) ;
#246 = CARTESIAN_POINT ( 'NONE',  ( 6.989374044591550381E-16, -0.5500000000000012657, 0.2001836288464141633 ) ) ;
#247 = EDGE_LOOP ( 'NONE', ( #177 ) ) ;
#248 = PERSON_AND_ORGANIZATION_ROLE ( 'design_owner' ) ;
#249 = CALENDAR_DATE ( 2021, 13, 10 ) ;
#250 = EDGE_LOOP ( 'NONE', ( #85 ) ) ;
#251 = CALENDAR_DATE ( 2021, 13, 10 ) ;
#252 = AXIS2_PLACEMENT_3D ( 'NONE', #232, #13, #105 ) ;
#253 = DIRECTION ( 'NONE',  ( -3.491481338843133355E-15, 1.224646799147353207E-16, -1.000000000000000000 ) ) ;
#254 = DIRECTION ( 'NONE',  ( -3.491481338843133355E-15, 4.327174794786742882E-16, -1.000000000000000000 ) ) ;
#255 = DIRECTION ( 'NONE',  ( 3.491481338843133355E-15, -4.327174794786742882E-16, 1.000000000000000000 ) ) ;
#256 = APPLICATION_PROTOCOL_DEFINITION ( 'international standard', 'config_control_design', 1994, #35 ) ;
#257 = APPROVAL ( #154, 'UNSPECIFIED' ) ;
#258 = CARTESIAN_POINT ( 'NONE',  ( 1.326762908760390423E-13, -4.653657836759941941E-15, 38.00000000000000000 ) ) ;
#259 = ORGANIZATION ( 'UNSPECIFIED', 'UNSPECIFIED', '' ) ;
#260 = EDGE_LOOP ( 'NONE', ( #81 ) ) ;
#261 = AXIS2_PLACEMENT_3D ( 'NONE', #150, #240, #118 ) ;
#262 = ORIENTED_EDGE ( 'NONE', *, *, #103, .T. ) ;
#263 = COORDINATED_UNIVERSAL_TIME_OFFSET ( 1, 0, .AHEAD. ) ;
ENDSEC;
END-ISO-10303-21;
