ISO-10303-21;
HEADER;
FILE_DESCRIPTION (( 'STEP AP203' ),
    '1' );
FILE_NAME ('976424.step',
    '2024-07-12T09:23:23',
    ( '' ),
    ( '' ),
    'SwSTEP 2.0',
    'SolidWorks 2022',
    '' );
FILE_SCHEMA (( 'CONFIG_CONTROL_DESIGN' ));
ENDSEC;

DATA;
#1 = EDGE_LOOP ( 'NONE', ( #209 ) ) ;
#2 = CARTESIAN_POINT ( 'NONE',  ( -2.137915722948479128E-30, 7.498798913309288039E-32, -6.123233995736766282E-16 ) ) ;
#3 = CC_DESIGN_PERSON_AND_ORGANIZATION_ASSIGNMENT ( #85, #185, ( #68 ) ) ;
#4 = CARTESIAN_POINT ( 'NONE',  ( 1.745740669421566678E-13, -6.123233995736766085E-15, 50.00000000000000000 ) ) ;
#5 = DIRECTION ( 'NONE',  ( 0.000000000000000000, 1.000000000000000000, 0.000000000000000000 ) ) ;
#6 = CARTESIAN_POINT ( 'NONE',  ( -4.275831445896958256E-30, 1.499759782661857608E-31, -1.224646799147353256E-15 ) ) ;
#7 = FACE_OUTER_BOUND ( 'NONE', #38, .T. ) ;
#8 = CALENDAR_DATE ( 2024, 12, 7 ) ;
#9 = ADVANCED_FACE ( 'NONE', ( #34, #202 ), #225, .T. ) ;
#10 = PERSON_AND_ORGANIZATION ( #49, #115 ) ;
#11 = PERSON_AND_ORGANIZATION_ROLE ( 'design_supplier' ) ;
#12 = ORIENTED_EDGE ( 'NONE', *, *, #193, .T. ) ;
#13 = AXIS2_PLACEMENT_3D ( 'NONE', #112, #186, #14 ) ;
#14 = DIRECTION ( 'NONE',  ( -4.275831445896958607E-31, -1.000000000000000000, -1.224646799147353207E-16 ) ) ;
#15 = LOCAL_TIME ( 11, 23, 23.00000000000000000, #106 ) ;
#16 = ADVANCED_FACE ( 'NONE', ( #35 ), #110, .T. ) ;
#17 = EDGE_LOOP ( 'NONE', ( #131 ) ) ;
#18 = DIRECTION ( 'NONE',  ( -3.491481338843133355E-15, 1.224646799147353207E-16, -1.000000000000000000 ) ) ;
#19 = ADVANCED_FACE ( 'NONE', ( #92 ), #172, .F. ) ;
#20 = CARTESIAN_POINT ( 'NONE',  ( 4.364351673553916568E-13, -1.530808498934191561E-14, 125.0000000000000000 ) ) ;
#21 = CARTESIAN_POINT ( 'NONE',  ( 6.284666409917640040E-14, -2.204364238465235428E-15, 18.00000000000000000 ) ) ;
#22 = CC_DESIGN_SECURITY_CLASSIFICATION ( #79, ( #68 ) ) ;
#23 = EDGE_CURVE ( 'NONE', #146, #146, #183, .T. ) ;
#24 = APPLICATION_PROTOCOL_DEFINITION ( 'international standard', 'config_control_design', 1994, #30 ) ;
#25 = CARTESIAN_POINT ( 'NONE',  ( 0.000000000000000000, 10.00000000000000000, 0.000000000000000000 ) ) ;
#26 = DIRECTION ( 'NONE',  ( 3.491481338843133355E-15, -1.224646799147353207E-16, 1.000000000000000000 ) ) ;
#27 = AXIS2_PLACEMENT_3D ( 'NONE', #220, #26, #144 ) ;
#28 = VERTEX_POINT ( 'NONE', #222 ) ;
#29 = DIRECTION ( 'NONE',  ( 1.000000000000000000, 0.000000000000000000, 0.000000000000000000 ) ) ;
#30 = APPLICATION_CONTEXT ( 'configuration controlled 3d designs of mechanical parts and assemblies' ) ;
#31 = AXIS2_PLACEMENT_3D ( 'NONE', #4, #176, #74 ) ;
#32 = MANIFOLD_SOLID_BREP ( 'Corps-Déplacer/Copier1[2]', #215 ) ;
#33 = PERSON_AND_ORGANIZATION ( #49, #115 ) ;
#34 = FACE_OUTER_BOUND ( 'NONE', #223, .T. ) ;
#35 = FACE_OUTER_BOUND ( 'NONE', #227, .T. ) ;
#36 = MANIFOLD_SOLID_BREP ( 'Corps-Déplacer/Copier1[1]', #203 ) ;
#37 = CALENDAR_DATE ( 2024, 12, 7 ) ;
#38 = EDGE_LOOP ( 'NONE', ( #152 ) ) ;
#39 = LOCAL_TIME ( 11, 23, 23.00000000000000000, #171 ) ;
#40 = ADVANCED_BREP_SHAPE_REPRESENTATION ( '976424', ( #36, #32, #89 ), #229 ) ;
#41 = FACE_OUTER_BOUND ( 'NONE', #129, .T. ) ;
#42 = CARTESIAN_POINT ( 'NONE',  ( 4.364351673553916568E-13, -1.530808498934191561E-14, 125.0000000000000000 ) ) ;
#43 = AXIS2_PLACEMENT_3D ( 'NONE', #230, #61, #116 ) ;
#44 = DIRECTION ( 'NONE',  ( -3.491481338843133355E-15, 1.224646799147353207E-16, -1.000000000000000000 ) ) ;
#45 = EDGE_CURVE ( 'NONE', #237, #237, #206, .T. ) ;
#46 = CARTESIAN_POINT ( 'NONE',  ( 6.284666409917640040E-14, 9.999999999999998224, 18.00000000000000000 ) ) ;
#47 = VERTEX_POINT ( 'NONE', #197 ) ;
#48 = CARTESIAN_POINT ( 'NONE',  ( 4.364351673553916568E-13, 8.999999999999991118, 125.0000000000000000 ) ) ;
#49 = PERSON ( 'UNSPECIFIED', 'UNSPECIFIED', 'UNSPECIFIED', ('UNSPECIFIED'), ('UNSPECIFIED'), ('UNSPECIFIED') ) ;
#50 = EDGE_LOOP ( 'NONE', ( #88 ) ) ;
#51 = DIRECTION ( 'NONE',  ( -3.491481338843133355E-15, 1.224646799147353207E-16, -1.000000000000000000 ) ) ;
#52 = DATE_AND_TIME ( #90, #207 ) ;
#53 = CARTESIAN_POINT ( 'NONE',  ( 6.284666409917640040E-14, 7.123858967643818711E-32, 18.00000000000000000 ) ) ;
#54 = DIRECTION ( 'NONE',  ( 4.275831445896958607E-31, 1.000000000000000000, 1.224646799147353207E-16 ) ) ;
#55 = CC_DESIGN_APPROVAL ( #138, ( #68 ) ) ;
#56 = DIRECTION ( 'NONE',  ( 4.275831445896958607E-31, 1.000000000000000000, 1.224646799147353207E-16 ) ) ;
#57 = FACE_OUTER_BOUND ( 'NONE', #1, .T. ) ;
#58 = APPROVAL_PERSON_ORGANIZATION ( #102, #123, #67 ) ;
#59 = LOCAL_TIME ( 11, 23, 23.00000000000000000, #143 ) ;
#60 = EDGE_CURVE ( 'NONE', #148, #148, #153, .T. ) ;
#61 = DIRECTION ( 'NONE',  ( -3.491481338843133355E-15, 1.224646799147353207E-16, -1.000000000000000000 ) ) ;
#62 = APPROVAL_ROLE ( '' ) ;
#63 = DATE_TIME_ROLE ( 'creation_date' ) ;
#64 = ADVANCED_FACE ( 'NONE', ( #137, #212 ), #232, .T. ) ;
#65 = APPROVAL_STATUS ( 'not_yet_approved' ) ;
#66 = MECHANICAL_CONTEXT ( 'NONE', #30, 'mechanical' ) ;
#67 = APPROVAL_ROLE ( '' ) ;
#68 = PRODUCT_DEFINITION_FORMATION_WITH_SPECIFIED_SOURCE ( 'ANY', '', #121, .NOT_KNOWN. ) ;
#69 = CC_DESIGN_PERSON_AND_ORGANIZATION_ASSIGNMENT ( #133, #11, ( #68 ) ) ;
#70 = AXIS2_PLACEMENT_3D ( 'NONE', #73, #44, #218 ) ;
#71 = ORIENTED_EDGE ( 'NONE', *, *, #135, .T. ) ;
#72 = PLANE ( 'NONE',  #70 ) ;
#73 = CARTESIAN_POINT ( 'NONE',  ( 4.364351673553916568E-13, 6.748919021978341719E-32, 125.0000000000000000 ) ) ;
#74 = DIRECTION ( 'NONE',  ( 0.000000000000000000, 1.000000000000000000, 0.000000000000000000 ) ) ;
#75 = PERSON_AND_ORGANIZATION_ROLE ( 'creator' ) ;
#76 = CC_DESIGN_PERSON_AND_ORGANIZATION_ASSIGNMENT ( #87, #181, ( #79 ) ) ;
#77 = DIRECTION ( 'NONE',  ( 0.000000000000000000, 0.000000000000000000, 1.000000000000000000 ) ) ;
#78 = CARTESIAN_POINT ( 'NONE',  ( 1.763198076115782281E-13, 9.999999999999984013, 50.49999999999999289 ) ) ;
#79 = SECURITY_CLASSIFICATION ( '', '', #154 ) ;
#80 = VERTEX_POINT ( 'NONE', #25 ) ;
#81 = VERTEX_POINT ( 'NONE', #78 ) ;
#82 = SHAPE_DEFINITION_REPRESENTATION ( #221, #40 ) ;
#83 = COORDINATED_UNIVERSAL_TIME_OFFSET ( 1, 0, .AHEAD. ) ;
#84 = PRODUCT_DEFINITION ( 'UNKNOWN', '', #68, #109 ) ;
#85 = PERSON_AND_ORGANIZATION ( #49, #115 ) ;
#86 = EDGE_LOOP ( 'NONE', ( #241 ) ) ;
#87 = PERSON_AND_ORGANIZATION ( #49, #115 ) ;
#88 = ORIENTED_EDGE ( 'NONE', *, *, #107, .T. ) ;
#89 = AXIS2_PLACEMENT_3D ( 'NONE', #163, #77, #29 ) ;
#90 = CALENDAR_DATE ( 2024, 12, 7 ) ;
#91 = APPROVAL ( #226, 'UNSPECIFIED' ) ;
#92 = FACE_OUTER_BOUND ( 'NONE', #128, .T. ) ;
#93 = ORIENTED_EDGE ( 'NONE', *, *, #201, .T. ) ;
#94 = PLANE ( 'NONE',  #162 ) ;
#95 = PRODUCT_RELATED_PRODUCT_CATEGORY ( 'detail', '', ( #121 ) ) ;
#96 = AXIS2_PLACEMENT_3D ( 'NONE', #101, #156, #139 ) ;
#97 = DIRECTION ( 'NONE',  ( 4.275831445896958607E-31, 1.000000000000000000, 1.224646799147353207E-16 ) ) ;
#98 = CC_DESIGN_DATE_AND_TIME_ASSIGNMENT ( #233, #63, ( #84 ) ) ;
#99 = ADVANCED_FACE ( 'NONE', ( #57, #142 ), #175, .T. ) ;
#100 = DIRECTION ( 'NONE',  ( 4.275831445896958607E-31, 1.000000000000000000, 1.224646799147353207E-16 ) ) ;
#101 = CARTESIAN_POINT ( 'NONE',  ( 1.763198076115782281E-13, -6.184466335694132870E-15, 50.49999999999999289 ) ) ;
#102 = PERSON_AND_ORGANIZATION ( #49, #115 ) ;
#103 = CC_DESIGN_DATE_AND_TIME_ASSIGNMENT ( #52, #224, ( #79 ) ) ;
#104 = CIRCLE ( 'NONE', #31, 9.500000000000000000 ) ;
#105 = CIRCLE ( 'NONE', #198, 9.499999999999996447 ) ;
#106 = COORDINATED_UNIVERSAL_TIME_OFFSET ( 1, 0, .AHEAD. ) ;
#107 = EDGE_CURVE ( 'NONE', #47, #47, #104, .T. ) ;
#108 = APPROVAL_STATUS ( 'not_yet_approved' ) ;
#109 = DESIGN_CONTEXT ( 'detailed design', #118, 'design' ) ;
#110 = PLANE ( 'NONE',  #13 ) ;
#111 = ORIENTED_EDGE ( 'NONE', *, *, #107, .F. ) ;
#112 = CARTESIAN_POINT ( 'NONE',  ( 6.284666409917640040E-14, 7.498798913309285850E-32, 18.00000000000000000 ) ) ;
#113 = ORIENTED_EDGE ( 'NONE', *, *, #45, .T. ) ;
#114 = FACE_BOUND ( 'NONE', #208, .T. ) ;
#115 = ORGANIZATION ( 'UNSPECIFIED', 'UNSPECIFIED', '' ) ;
#116 = DIRECTION ( 'NONE',  ( 0.000000000000000000, 1.000000000000000000, 0.000000000000000000 ) ) ;
#117 = FACE_BOUND ( 'NONE', #17, .T. ) ;
#118 = APPLICATION_CONTEXT ( 'configuration controlled 3d designs of mechanical parts and assemblies' ) ;
#119 = LOCAL_TIME ( 11, 23, 23.00000000000000000, #200 ) ;
#120 = CARTESIAN_POINT ( 'NONE',  ( 4.329436860165485361E-13, 9.999999999999991118, 124.0000000000000000 ) ) ;
#121 = PRODUCT ( '976424', '976424', '', ( #66 ) ) ;
#122 =( LENGTH_UNIT ( ) NAMED_UNIT ( * ) SI_UNIT ( .MILLI., .METRE. ) );
#123 = APPROVAL ( #108, 'UNSPECIFIED' ) ;
#124 = APPLICATION_PROTOCOL_DEFINITION ( 'international standard', 'config_control_design', 1994, #118 ) ;
#125 = AXIS2_PLACEMENT_3D ( 'NONE', #189, #231, #97 ) ;
#126 =( NAMED_UNIT ( * ) SI_UNIT ( $, .STERADIAN. ) SOLID_ANGLE_UNIT ( ) );
#127 = APPROVAL_DATE_TIME ( #166, #91 ) ;
#128 = EDGE_LOOP ( 'NONE', ( #12 ) ) ;
#129 = EDGE_LOOP ( 'NONE', ( #93 ) ) ;
#130 = CONICAL_SURFACE ( 'NONE', #27, 9.500000000000000000, 0.7853981633974466137 ) ;
#131 = ORIENTED_EDGE ( 'NONE', *, *, #23, .T. ) ;
#132 = DIRECTION ( 'NONE',  ( 4.275831445896958607E-31, 1.000000000000000000, 1.224646799147353207E-16 ) ) ;
#133 = PERSON_AND_ORGANIZATION ( #49, #115 ) ;
#134 = DIRECTION ( 'NONE',  ( 3.491481338843133355E-15, -1.224646799147353207E-16, 1.000000000000000000 ) ) ;
#135 = EDGE_CURVE ( 'NONE', #80, #80, #164, .T. ) ;
#136 = AXIS2_PLACEMENT_3D ( 'NONE', #170, #51, #132 ) ;
#137 = FACE_OUTER_BOUND ( 'NONE', #50, .T. ) ;
#138 = APPROVAL ( #65, 'UNSPECIFIED' ) ;
#139 = DIRECTION ( 'NONE',  ( 0.000000000000000000, 1.000000000000000000, 0.000000000000000000 ) ) ;
#140 = CC_DESIGN_APPROVAL ( #123, ( #84 ) ) ;
#141 = CARTESIAN_POINT ( 'NONE',  ( 0.000000000000000000, 0.000000000000000000, 0.000000000000000000 ) ) ;
#142 = FACE_OUTER_BOUND ( 'NONE', #242, .T. ) ;
#143 = COORDINATED_UNIVERSAL_TIME_OFFSET ( 1, 0, .AHEAD. ) ;
#144 = DIRECTION ( 'NONE',  ( 0.000000000000000000, -1.000000000000000000, 0.000000000000000000 ) ) ;
#145 = CONICAL_SURFACE ( 'NONE', #159, 9.000000000000007105, 0.7853981633974482790 ) ;
#146 = VERTEX_POINT ( 'NONE', #48 ) ;
#147 = CC_DESIGN_PERSON_AND_ORGANIZATION_ASSIGNMENT ( #235, #75, ( #84 ) ) ;
#148 = VERTEX_POINT ( 'NONE', #120 ) ;
#149 = PERSON_AND_ORGANIZATION ( #49, #115 ) ;
#150 = APPROVAL_ROLE ( '' ) ;
#151 = ORIENTED_EDGE ( 'NONE', *, *, #45, .F. ) ;
#152 = ORIENTED_EDGE ( 'NONE', *, *, #23, .F. ) ;
#153 = CIRCLE ( 'NONE', #43, 10.00000000000000711 ) ;
#154 = SECURITY_CLASSIFICATION_LEVEL ( 'unclassified' ) ;
#155 = ADVANCED_FACE ( 'NONE', ( #7 ), #72, .F. ) ;
#156 = DIRECTION ( 'NONE',  ( -3.491481338843133355E-15, 1.224646799147353207E-16, -1.000000000000000000 ) ) ;
#157 = FACE_OUTER_BOUND ( 'NONE', #173, .T. ) ;
#158 = CARTESIAN_POINT ( 'NONE',  ( 6.284666409917640040E-14, -2.204364238465235428E-15, 18.00000000000000000 ) ) ;
#159 = AXIS2_PLACEMENT_3D ( 'NONE', #42, #192, #194 ) ;
#160 = DIRECTION ( 'NONE',  ( -3.491481338843133355E-15, 1.224646799147353207E-16, -1.000000000000000000 ) ) ;
#161 = DATE_AND_TIME ( #8, #119 ) ;
#162 = AXIS2_PLACEMENT_3D ( 'NONE', #2, #213, #54 ) ;
#163 = CARTESIAN_POINT ( 'NONE',  ( 0.000000000000000000, 0.000000000000000000, 0.000000000000000000 ) ) ;
#164 = CIRCLE ( 'NONE', #239, 10.00000000000000000 ) ;
#165 = DATE_AND_TIME ( #37, #59 ) ;
#166 = DATE_AND_TIME ( #169, #39 ) ;
#167 = ORIENTED_EDGE ( 'NONE', *, *, #193, .F. ) ;
#168 = CC_DESIGN_PERSON_AND_ORGANIZATION_ASSIGNMENT ( #10, #199, ( #121 ) ) ;
#169 = CALENDAR_DATE ( 2024, 12, 7 ) ;
#170 = CARTESIAN_POINT ( 'NONE',  ( 0.000000000000000000, 0.000000000000000000, 0.000000000000000000 ) ) ;
#171 = COORDINATED_UNIVERSAL_TIME_OFFSET ( 1, 0, .AHEAD. ) ;
#172 = PLANE ( 'NONE',  #211 ) ;
#173 = EDGE_LOOP ( 'NONE', ( #187 ) ) ;
#174 = DIRECTION ( 'NONE',  ( 0.000000000000000000, 1.000000000000000000, 0.000000000000000000 ) ) ;
#175 = CYLINDRICAL_SURFACE ( 'NONE', #216, 9.999999999999998224 ) ;
#176 = DIRECTION ( 'NONE',  ( -3.491481338843133355E-15, 1.224646799147353207E-16, -1.000000000000000000 ) ) ;
#177 = ADVANCED_FACE ( 'NONE', ( #157, #117 ), #145, .T. ) ;
#178 = DIRECTION ( 'NONE',  ( -3.491481338843133355E-15, 1.224646799147353207E-16, -1.000000000000000000 ) ) ;
#179 = APPROVAL_PERSON_ORGANIZATION ( #149, #138, #62 ) ;
#180 = APPROVAL_DATE_TIME ( #161, #123 ) ;
#181 = PERSON_AND_ORGANIZATION_ROLE ( 'classification_officer' ) ;
#182 = EDGE_LOOP ( 'NONE', ( #71 ) ) ;
#183 = CIRCLE ( 'NONE', #190, 9.000000000000007105 ) ;
#184 = ORIENTED_EDGE ( 'NONE', *, *, #60, .T. ) ;
#185 = PERSON_AND_ORGANIZATION_ROLE ( 'creator' ) ;
#186 = DIRECTION ( 'NONE',  ( 3.491481338843133355E-15, -1.224646799147353207E-16, 1.000000000000000000 ) ) ;
#187 = ORIENTED_EDGE ( 'NONE', *, *, #60, .F. ) ;
#188 = DIRECTION ( 'NONE',  ( -3.491481338843133355E-15, 1.224646799147353207E-16, -1.000000000000000000 ) ) ;
#189 = CARTESIAN_POINT ( 'NONE',  ( 0.000000000000000000, 0.000000000000000000, 0.000000000000000000 ) ) ;
#190 = AXIS2_PLACEMENT_3D ( 'NONE', #20, #188, #214 ) ;
#191 = CC_DESIGN_APPROVAL ( #91, ( #79 ) ) ;
#192 = DIRECTION ( 'NONE',  ( -3.491481338843133355E-15, 1.224646799147353207E-16, -1.000000000000000000 ) ) ;
#193 = EDGE_CURVE ( 'NONE', #28, #28, #105, .T. ) ;
#194 = DIRECTION ( 'NONE',  ( 0.000000000000000000, 1.000000000000000000, 0.000000000000000000 ) ) ;
#195 = CIRCLE ( 'NONE', #96, 9.999999999999991118 ) ;
#196 = APPROVAL_PERSON_ORGANIZATION ( #33, #91, #150 ) ;
#197 = CARTESIAN_POINT ( 'NONE',  ( 1.745740669421566678E-13, 9.499999999999992895, 50.00000000000000000 ) ) ;
#198 = AXIS2_PLACEMENT_3D ( 'NONE', #21, #18, #174 ) ;
#199 = PERSON_AND_ORGANIZATION_ROLE ( 'design_owner' ) ;
#200 = COORDINATED_UNIVERSAL_TIME_OFFSET ( 1, 0, .AHEAD. ) ;
#201 = EDGE_CURVE ( 'NONE', #81, #81, #195, .T. ) ;
#202 = FACE_OUTER_BOUND ( 'NONE', #86, .T. ) ;
#203 = CLOSED_SHELL ( 'NONE', ( #19, #64, #236, #99, #177, #155 ) ) ;
#204 = ADVANCED_FACE ( 'NONE', ( #228 ), #94, .T. ) ;
#205 = EDGE_LOOP ( 'NONE', ( #167 ) ) ;
#206 = CIRCLE ( 'NONE', #243, 10.00000000000000000 ) ;
#207 = LOCAL_TIME ( 11, 23, 23.00000000000000000, #83 ) ;
#208 = EDGE_LOOP ( 'NONE', ( #111 ) ) ;
#209 = ORIENTED_EDGE ( 'NONE', *, *, #201, .F. ) ;
#210 = DIRECTION ( 'NONE',  ( -4.275831445896958607E-31, -1.000000000000000000, -1.224646799147353207E-16 ) ) ;
#211 = AXIS2_PLACEMENT_3D ( 'NONE', #53, #134, #210 ) ;
#212 = FACE_OUTER_BOUND ( 'NONE', #205, .T. ) ;
#213 = DIRECTION ( 'NONE',  ( -3.491481338843133355E-15, 1.224646799147353207E-16, -1.000000000000000000 ) ) ;
#214 = DIRECTION ( 'NONE',  ( 0.000000000000000000, 1.000000000000000000, 0.000000000000000000 ) ) ;
#215 = CLOSED_SHELL ( 'NONE', ( #204, #9, #16 ) ) ;
#216 = AXIS2_PLACEMENT_3D ( 'NONE', #141, #217, #100 ) ;
#217 = DIRECTION ( 'NONE',  ( -3.491481338843133355E-15, 1.224646799147353207E-16, -1.000000000000000000 ) ) ;
#218 = DIRECTION ( 'NONE',  ( 4.275831445896958607E-31, 1.000000000000000000, 1.224646799147353207E-16 ) ) ;
#219 =( NAMED_UNIT ( * ) PLANE_ANGLE_UNIT ( ) SI_UNIT ( $, .RADIAN. ) );
#220 = CARTESIAN_POINT ( 'NONE',  ( 1.745740669421566678E-13, -6.123233995736766085E-15, 50.00000000000000000 ) ) ;
#221 = PRODUCT_DEFINITION_SHAPE ( 'NONE', 'NONE',  #84 ) ;
#222 = CARTESIAN_POINT ( 'NONE',  ( 6.284666409917640040E-14, 9.499999999999994671, 18.00000000000000000 ) ) ;
#223 = EDGE_LOOP ( 'NONE', ( #113 ) ) ;
#224 = DATE_TIME_ROLE ( 'classification_date' ) ;
#225 = CYLINDRICAL_SURFACE ( 'NONE', #136, 10.00000000000000000 ) ;
#226 = APPROVAL_STATUS ( 'not_yet_approved' ) ;
#227 = EDGE_LOOP ( 'NONE', ( #151 ) ) ;
#228 = FACE_OUTER_BOUND ( 'NONE', #182, .T. ) ;
#229 =( GEOMETRIC_REPRESENTATION_CONTEXT ( 3 ) GLOBAL_UNCERTAINTY_ASSIGNED_CONTEXT ( ( #238 ) ) GLOBAL_UNIT_ASSIGNED_CONTEXT ( ( #122, #219, #126 ) ) REPRESENTATION_CONTEXT ( 'NONE', 'WORKASPACE' ) );
#230 = CARTESIAN_POINT ( 'NONE',  ( 4.329436860165485361E-13, -1.518562030942718046E-14, 124.0000000000000000 ) ) ;
#231 = DIRECTION ( 'NONE',  ( -3.491481338843133355E-15, 1.224646799147353207E-16, -1.000000000000000000 ) ) ;
#232 = CYLINDRICAL_SURFACE ( 'NONE', #125, 9.499999999999998224 ) ;
#233 = DATE_AND_TIME ( #234, #15 ) ;
#234 = CALENDAR_DATE ( 2024, 12, 7 ) ;
#235 = PERSON_AND_ORGANIZATION ( #49, #115 ) ;
#236 = ADVANCED_FACE ( 'NONE', ( #41, #114 ), #130, .T. ) ;
#237 = VERTEX_POINT ( 'NONE', #46 ) ;
#238 = UNCERTAINTY_MEASURE_WITH_UNIT (LENGTH_MEASURE( 1.000000000000000082E-05 ), #122, 'distance_accuracy_value', 'NONE');
#239 = AXIS2_PLACEMENT_3D ( 'NONE', #6, #160, #56 ) ;
#240 = APPROVAL_DATE_TIME ( #165, #138 ) ;
#241 = ORIENTED_EDGE ( 'NONE', *, *, #135, .F. ) ;
#242 = EDGE_LOOP ( 'NONE', ( #184 ) ) ;
#243 = AXIS2_PLACEMENT_3D ( 'NONE', #158, #178, #5 ) ;
ENDSEC;
END-ISO-10303-21;
