ISO-10303-21;
HEADER;
FILE_DESCRIPTION (( 'STEP AP203' ),
    '1' );
FILE_NAME ('976423.step',
    '2024-07-12T09:23:23',
    ( '' ),
    ( '' ),
    'SwSTEP 2.0',
    'SolidWorks 2022',
    '' );
FILE_SCHEMA (( 'CONFIG_CONTROL_DESIGN' ));
ENDSEC;

DATA;
#1 = ADVANCED_FACE ( 'NONE', ( #139, #57 ), #141, .T. ) ;
#2 = FACE_OUTER_BOUND ( 'NONE', #21, .T. ) ;
#3 = EDGE_LOOP ( 'NONE', ( #11 ) ) ;
#4 = EDGE_LOOP ( 'NONE', ( #43 ) ) ;
#5 = LOCAL_TIME ( 11, 23, 23.00000000000000000, #128 ) ;
#6 = ADVANCED_FACE ( 'NONE', ( #106 ), #203, .F. ) ;
#7 = ORIENTED_EDGE ( 'NONE', *, *, #84, .F. ) ;
#8 = CC_DESIGN_PERSON_AND_ORGANIZATION_ASSIGNMENT ( #168, #231, ( #134 ) ) ;
#9 = PERSON_AND_ORGANIZATION_ROLE ( 'creator' ) ;
#10 = AXIS2_PLACEMENT_3D ( 'NONE', #239, #222, #94 ) ;
#11 = ORIENTED_EDGE ( 'NONE', *, *, #67, .T. ) ;
#12 = CIRCLE ( 'NONE', #131, 9.499999999999998224 ) ;
#13 = AXIS2_PLACEMENT_3D ( 'NONE', #93, #165, #75 ) ;
#14 = APPROVAL_PERSON_ORGANIZATION ( #28, #230, #37 ) ;
#15 = PLANE ( 'NONE',  #175 ) ;
#16 = DIRECTION ( 'NONE',  ( 3.491481338843133355E-15, -1.224646799147353454E-16, 1.000000000000000000 ) ) ;
#17 = CARTESIAN_POINT ( 'NONE',  ( 3.631140592396858689E-13, 6.748919021978341719E-32, 104.0000000000000000 ) ) ;
#18 = PLANE ( 'NONE',  #13 ) ;
#19 = CALENDAR_DATE ( 2024, 12, 7 ) ;
#20 = CARTESIAN_POINT ( 'NONE',  ( 6.284666409917640040E-14, 7.498798913309288039E-32, 18.00000000000000000 ) ) ;
#21 = EDGE_LOOP ( 'NONE', ( #47 ) ) ;
#22 = CARTESIAN_POINT ( 'NONE',  ( 3.596225779008427482E-13, 9.999999999999984013, 103.0000000000000142 ) ) ;
#23 = ORIENTED_EDGE ( 'NONE', *, *, #212, .F. ) ;
#24 = ORIENTED_EDGE ( 'NONE', *, *, #196, .T. ) ;
#25 = CC_DESIGN_DATE_AND_TIME_ASSIGNMENT ( #174, #116, ( #132 ) ) ;
#26 = EDGE_LOOP ( 'NONE', ( #193 ) ) ;
#27 = APPROVAL_DATE_TIME ( #202, #147 ) ;
#28 = PERSON_AND_ORGANIZATION ( #45, #152 ) ;
#29 = VERTEX_POINT ( 'NONE', #69 ) ;
#30 = CARTESIAN_POINT ( 'NONE',  ( 6.284666409917640040E-14, -2.204364238465235822E-15, 18.00000000000000000 ) ) ;
#31 = CC_DESIGN_PERSON_AND_ORGANIZATION_ASSIGNMENT ( #204, #32, ( #171 ) ) ;
#32 = PERSON_AND_ORGANIZATION_ROLE ( 'design_supplier' ) ;
#33 = DIRECTION ( 'NONE',  ( 4.275831445896959482E-31, 1.000000000000000000, 1.224646799147353454E-16 ) ) ;
#34 = CARTESIAN_POINT ( 'NONE',  ( 1.256933281983528008E-13, -4.408728476930471644E-15, 36.00000000000000000 ) ) ;
#35 = CIRCLE ( 'NONE', #243, 8.999999999999996447 ) ;
#36 = DIRECTION ( 'NONE',  ( 0.000000000000000000, 1.000000000000000000, 0.000000000000000000 ) ) ;
#37 = APPROVAL_ROLE ( '' ) ;
#38 = DIRECTION ( 'NONE',  ( -4.275831445896959482E-31, -1.000000000000000000, -1.224646799147353454E-16 ) ) ;
#39 =( LENGTH_UNIT ( ) NAMED_UNIT ( * ) SI_UNIT ( .MILLI., .METRE. ) );
#40 = VERTEX_POINT ( 'NONE', #192 ) ;
#41 = EDGE_LOOP ( 'NONE', ( #82 ) ) ;
#42 = AXIS2_PLACEMENT_3D ( 'NONE', #163, #227, #121 ) ;
#43 = ORIENTED_EDGE ( 'NONE', *, *, #67, .F. ) ;
#44 = CLOSED_SHELL ( 'NONE', ( #181, #1, #53 ) ) ;
#45 = PERSON ( 'UNSPECIFIED', 'UNSPECIFIED', 'UNSPECIFIED', ('UNSPECIFIED'), ('UNSPECIFIED'), ('UNSPECIFIED') ) ;
#46 = DIRECTION ( 'NONE',  ( 1.000000000000000000, 0.000000000000000000, 0.000000000000000000 ) ) ;
#47 = ORIENTED_EDGE ( 'NONE', *, *, #49, .F. ) ;
#48 = APPROVAL ( #154, 'UNSPECIFIED' ) ;
#49 = EDGE_CURVE ( 'NONE', #59, #59, #35, .T. ) ;
#50 = DATE_AND_TIME ( #236, #184 ) ;
#51 = CLOSED_SHELL ( 'NONE', ( #6, #96, #60, #162, #185, #63 ) ) ;
#52 = DIRECTION ( 'NONE',  ( 4.275831445896958607E-31, 1.000000000000000000, 1.224646799147353454E-16 ) ) ;
#53 = ADVANCED_FACE ( 'NONE', ( #206 ), #15, .T. ) ;
#54 = AXIS2_PLACEMENT_3D ( 'NONE', #78, #91, #161 ) ;
#55 = APPROVAL_PERSON_ORGANIZATION ( #191, #147, #79 ) ;
#56 = CYLINDRICAL_SURFACE ( 'NONE', #54, 9.499999999999998224 ) ;
#57 = FACE_OUTER_BOUND ( 'NONE', #219, .T. ) ;
#58 = LOCAL_TIME ( 11, 23, 23.00000000000000000, #149 ) ;
#59 = VERTEX_POINT ( 'NONE', #125 ) ;
#60 = ADVANCED_FACE ( 'NONE', ( #228, #119 ), #207, .T. ) ;
#61 = CARTESIAN_POINT ( 'NONE',  ( 1.274390688677743359E-13, -4.469960816887839219E-15, 36.49999999999999289 ) ) ;
#62 = AXIS2_PLACEMENT_3D ( 'NONE', #190, #186, #159 ) ;
#63 = ADVANCED_FACE ( 'NONE', ( #2 ), #242, .F. ) ;
#64 = APPROVAL_ROLE ( '' ) ;
#65 = EDGE_LOOP ( 'NONE', ( #88 ) ) ;
#66 = APPROVAL_PERSON_ORGANIZATION ( #237, #48, #64 ) ;
#67 = EDGE_CURVE ( 'NONE', #40, #40, #197, .T. ) ;
#68 = COORDINATED_UNIVERSAL_TIME_OFFSET ( 1, 0, .AHEAD. ) ;
#69 = CARTESIAN_POINT ( 'NONE',  ( 1.274390688677743359E-13, 9.999999999999987566, 36.49999999999999289 ) ) ;
#70 = DIRECTION ( 'NONE',  ( 0.000000000000000000, -1.000000000000000000, 0.000000000000000000 ) ) ;
#71 = DIRECTION ( 'NONE',  ( -3.491481338843133355E-15, 1.224646799147353454E-16, -1.000000000000000000 ) ) ;
#72 = CIRCLE ( 'NONE', #215, 9.500000000000000000 ) ;
#73 = AXIS2_PLACEMENT_3D ( 'NONE', #142, #97, #46 ) ;
#74 = CARTESIAN_POINT ( 'NONE',  ( 3.631140592396858689E-13, -1.273632671113247592E-14, 104.0000000000000000 ) ) ;
#75 = DIRECTION ( 'NONE',  ( 4.275831445896959482E-31, 1.000000000000000000, 1.224646799147353454E-16 ) ) ;
#76 = APPROVAL_DATE_TIME ( #166, #230 ) ;
#77 =( NAMED_UNIT ( * ) PLANE_ANGLE_UNIT ( ) SI_UNIT ( $, .RADIAN. ) );
#78 = CARTESIAN_POINT ( 'NONE',  ( 0.000000000000000000, 0.000000000000000000, 0.000000000000000000 ) ) ;
#79 = APPROVAL_ROLE ( '' ) ;
#80 = CARTESIAN_POINT ( 'NONE',  ( 0.000000000000000000, 10.00000000000000000, 0.000000000000000000 ) ) ;
#81 = DIRECTION ( 'NONE',  ( 0.000000000000000000, 1.000000000000000000, 0.000000000000000000 ) ) ;
#82 = ORIENTED_EDGE ( 'NONE', *, *, #196, .F. ) ;
#83 = AXIS2_PLACEMENT_3D ( 'NONE', #61, #99, #150 ) ;
#84 = EDGE_CURVE ( 'NONE', #98, #98, #169, .T. ) ;
#85 = CC_DESIGN_APPROVAL ( #147, ( #129 ) ) ;
#86 = DATE_AND_TIME ( #220, #225 ) ;
#87 = AXIS2_PLACEMENT_3D ( 'NONE', #167, #16, #70 ) ;
#88 = ORIENTED_EDGE ( 'NONE', *, *, #123, .F. ) ;
#89 = DIRECTION ( 'NONE',  ( 3.491481338843133355E-15, -1.224646799147353454E-16, 1.000000000000000000 ) ) ;
#90 = CARTESIAN_POINT ( 'NONE',  ( 1.256933281983528008E-13, 9.499999999999994671, 36.00000000000000000 ) ) ;
#91 = DIRECTION ( 'NONE',  ( -3.491481338843133355E-15, 1.224646799147353454E-16, -1.000000000000000000 ) ) ;
#92 = FACE_OUTER_BOUND ( 'NONE', #26, .T. ) ;
#93 = CARTESIAN_POINT ( 'NONE',  ( -2.137915722948479478E-30, 7.498798913309291323E-32, -6.123233995736767268E-16 ) ) ;
#94 = DIRECTION ( 'NONE',  ( -4.275831445896959482E-31, -1.000000000000000000, -1.224646799147353454E-16 ) ) ;
#95 = CC_DESIGN_PERSON_AND_ORGANIZATION_ASSIGNMENT ( #200, #9, ( #129 ) ) ;
#96 = ADVANCED_FACE ( 'NONE', ( #224, #92 ), #56, .T. ) ;
#97 = DIRECTION ( 'NONE',  ( 0.000000000000000000, 0.000000000000000000, 1.000000000000000000 ) ) ;
#98 = VERTEX_POINT ( 'NONE', #80 ) ;
#99 = DIRECTION ( 'NONE',  ( -3.491481338843133355E-15, 1.224646799147353454E-16, -1.000000000000000000 ) ) ;
#100 = DIRECTION ( 'NONE',  ( -3.491481338843133355E-15, 1.224646799147353454E-16, -1.000000000000000000 ) ) ;
#101 = SECURITY_CLASSIFICATION_LEVEL ( 'unclassified' ) ;
#102 = CARTESIAN_POINT ( 'NONE',  ( 6.284666409917640040E-14, -2.204364238465235822E-15, 18.00000000000000000 ) ) ;
#103 = FACE_OUTER_BOUND ( 'NONE', #110, .T. ) ;
#104 = DIRECTION ( 'NONE',  ( -3.491481338843133355E-15, 1.224646799147353454E-16, -1.000000000000000000 ) ) ;
#105 = COORDINATED_UNIVERSAL_TIME_OFFSET ( 1, 0, .AHEAD. ) ;
#106 = FACE_OUTER_BOUND ( 'NONE', #112, .T. ) ;
#107 = CC_DESIGN_PERSON_AND_ORGANIZATION_ASSIGNMENT ( #108, #146, ( #132 ) ) ;
#108 = PERSON_AND_ORGANIZATION ( #45, #152 ) ;
#109 = CARTESIAN_POINT ( 'NONE',  ( 3.596225779008427482E-13, -1.261386203121774077E-14, 103.0000000000000142 ) ) ;
#110 = EDGE_LOOP ( 'NONE', ( #153 ) ) ;
#111 = AXIS2_PLACEMENT_3D ( 'NONE', #138, #229, #52 ) ;
#112 = EDGE_LOOP ( 'NONE', ( #136 ) ) ;
#113 = CC_DESIGN_APPROVAL ( #48, ( #171 ) ) ;
#114 = EDGE_CURVE ( 'NONE', #199, #199, #12, .T. ) ;
#115 = APPLICATION_CONTEXT ( 'configuration controlled 3d designs of mechanical parts and assemblies' ) ;
#116 = DATE_TIME_ROLE ( 'classification_date' ) ;
#117 = COORDINATED_UNIVERSAL_TIME_OFFSET ( 1, 0, .AHEAD. ) ;
#118 = DIRECTION ( 'NONE',  ( -3.491481338843133355E-15, 1.224646799147353454E-16, -1.000000000000000000 ) ) ;
#119 = FACE_BOUND ( 'NONE', #65, .T. ) ;
#120 = DIRECTION ( 'NONE',  ( 0.000000000000000000, 1.000000000000000000, 0.000000000000000000 ) ) ;
#121 = DIRECTION ( 'NONE',  ( 4.275831445896959482E-31, 1.000000000000000000, 1.224646799147353454E-16 ) ) ;
#122 = FACE_OUTER_BOUND ( 'NONE', #205, .T. ) ;
#123 = EDGE_CURVE ( 'NONE', #164, #164, #72, .T. ) ;
#124 = APPLICATION_PROTOCOL_DEFINITION ( 'international standard', 'config_control_design', 1994, #126 ) ;
#125 = CARTESIAN_POINT ( 'NONE',  ( 3.631140592396858689E-13, 8.999999999999984013, 104.0000000000000000 ) ) ;
#126 = APPLICATION_CONTEXT ( 'configuration controlled 3d designs of mechanical parts and assemblies' ) ;
#127 = MANIFOLD_SOLID_BREP ( 'Corps-Déplacer/Copier1[2]', #44 ) ;
#128 = COORDINATED_UNIVERSAL_TIME_OFFSET ( 1, 0, .AHEAD. ) ;
#129 = PRODUCT_DEFINITION ( 'UNKNOWN', '', #171, #232 ) ;
#130 = APPLICATION_PROTOCOL_DEFINITION ( 'international standard', 'config_control_design', 1994, #115 ) ;
#131 = AXIS2_PLACEMENT_3D ( 'NONE', #30, #240, #120 ) ;
#132 = SECURITY_CLASSIFICATION ( '', '', #101 ) ;
#133 = APPROVAL_STATUS ( 'not_yet_approved' ) ;
#134 = PRODUCT ( '976423', '976423', '', ( #211 ) ) ;
#135 = PERSON_AND_ORGANIZATION_ROLE ( 'creator' ) ;
#136 = ORIENTED_EDGE ( 'NONE', *, *, #114, .T. ) ;
#137 = VERTEX_POINT ( 'NONE', #22 ) ;
#138 = CARTESIAN_POINT ( 'NONE',  ( -4.275831445896958957E-30, 1.499759782661858265E-31, -1.224646799147353454E-15 ) ) ;
#139 = FACE_OUTER_BOUND ( 'NONE', #3, .T. ) ;
#140 = DIRECTION ( 'NONE',  ( -3.491481338843133355E-15, 1.224646799147353454E-16, -1.000000000000000000 ) ) ;
#141 = CYLINDRICAL_SURFACE ( 'NONE', #62, 10.00000000000000000 ) ;
#142 = CARTESIAN_POINT ( 'NONE',  ( 0.000000000000000000, 0.000000000000000000, 0.000000000000000000 ) ) ;
#143 =( NAMED_UNIT ( * ) SI_UNIT ( $, .STERADIAN. ) SOLID_ANGLE_UNIT ( ) );
#144 = CARTESIAN_POINT ( 'NONE',  ( 3.631140592396858689E-13, -1.273632671113247592E-14, 104.0000000000000000 ) ) ;
#145 = DIRECTION ( 'NONE',  ( -3.491481338843133355E-15, 1.224646799147353454E-16, -1.000000000000000000 ) ) ;
#146 = PERSON_AND_ORGANIZATION_ROLE ( 'classification_officer' ) ;
#147 = APPROVAL ( #170, 'UNSPECIFIED' ) ;
#148 = ORIENTED_EDGE ( 'NONE', *, *, #49, .T. ) ;
#149 = COORDINATED_UNIVERSAL_TIME_OFFSET ( 1, 0, .AHEAD. ) ;
#150 = DIRECTION ( 'NONE',  ( 0.000000000000000000, 1.000000000000000000, 0.000000000000000000 ) ) ;
#151 = CONICAL_SURFACE ( 'NONE', #194, 8.999999999999996447, 0.7853981633974552734 ) ;
#152 = ORGANIZATION ( 'UNSPECIFIED', 'UNSPECIFIED', '' ) ;
#153 = ORIENTED_EDGE ( 'NONE', *, *, #212, .T. ) ;
#154 = APPROVAL_STATUS ( 'not_yet_approved' ) ;
#155 = AXIS2_PLACEMENT_3D ( 'NONE', #17, #140, #33 ) ;
#156 = PERSON_AND_ORGANIZATION ( #45, #152 ) ;
#157 = ADVANCED_BREP_SHAPE_REPRESENTATION ( '976423', ( #223, #127, #73 ), #218 ) ;
#158 = PRODUCT_RELATED_PRODUCT_CATEGORY ( 'detail', '', ( #134 ) ) ;
#159 = DIRECTION ( 'NONE',  ( 4.275831445896958607E-31, 1.000000000000000000, 1.224646799147353454E-16 ) ) ;
#160 = DATE_TIME_ROLE ( 'creation_date' ) ;
#161 = DIRECTION ( 'NONE',  ( 4.275831445896959482E-31, 1.000000000000000000, 1.224646799147353454E-16 ) ) ;
#162 = ADVANCED_FACE ( 'NONE', ( #241, #103 ), #187, .T. ) ;
#163 = CARTESIAN_POINT ( 'NONE',  ( 0.000000000000000000, 0.000000000000000000, 0.000000000000000000 ) ) ;
#164 = VERTEX_POINT ( 'NONE', #90 ) ;
#165 = DIRECTION ( 'NONE',  ( -3.491481338843133355E-15, 1.224646799147353454E-16, -1.000000000000000000 ) ) ;
#166 = DATE_AND_TIME ( #19, #198 ) ;
#167 = CARTESIAN_POINT ( 'NONE',  ( 1.256933281983528008E-13, -4.408728476930471644E-15, 36.00000000000000000 ) ) ;
#168 = PERSON_AND_ORGANIZATION ( #45, #152 ) ;
#169 = CIRCLE ( 'NONE', #111, 10.00000000000000000 ) ;
#170 = APPROVAL_STATUS ( 'not_yet_approved' ) ;
#171 = PRODUCT_DEFINITION_FORMATION_WITH_SPECIFIED_SOURCE ( 'ANY', '', #134, .NOT_KNOWN. ) ;
#172 = CC_DESIGN_DATE_AND_TIME_ASSIGNMENT ( #86, #160, ( #129 ) ) ;
#173 = EDGE_LOOP ( 'NONE', ( #24 ) ) ;
#174 = DATE_AND_TIME ( #213, #5 ) ;
#175 = AXIS2_PLACEMENT_3D ( 'NONE', #20, #89, #38 ) ;
#176 = ORIENTED_EDGE ( 'NONE', *, *, #123, .T. ) ;
#177 = EDGE_LOOP ( 'NONE', ( #176 ) ) ;
#178 = CIRCLE ( 'NONE', #189, 9.999999999999996447 ) ;
#179 = CALENDAR_DATE ( 2024, 12, 7 ) ;
#180 = APPROVAL_DATE_TIME ( #50, #48 ) ;
#181 = ADVANCED_FACE ( 'NONE', ( #188 ), #18, .T. ) ;
#182 = UNCERTAINTY_MEASURE_WITH_UNIT (LENGTH_MEASURE( 1.000000000000000082E-05 ), #39, 'distance_accuracy_value', 'NONE');
#183 = DIRECTION ( 'NONE',  ( 0.000000000000000000, 1.000000000000000000, 0.000000000000000000 ) ) ;
#184 = LOCAL_TIME ( 11, 23, 23.00000000000000000, #117 ) ;
#185 = ADVANCED_FACE ( 'NONE', ( #122, #209 ), #151, .T. ) ;
#186 = DIRECTION ( 'NONE',  ( -3.491481338843133355E-15, 1.224646799147353454E-16, -1.000000000000000000 ) ) ;
#187 = CYLINDRICAL_SURFACE ( 'NONE', #42, 9.999999999999994671 ) ;
#188 = FACE_OUTER_BOUND ( 'NONE', #221, .T. ) ;
#189 = AXIS2_PLACEMENT_3D ( 'NONE', #109, #145, #233 ) ;
#190 = CARTESIAN_POINT ( 'NONE',  ( 0.000000000000000000, 0.000000000000000000, 0.000000000000000000 ) ) ;
#191 = PERSON_AND_ORGANIZATION ( #45, #152 ) ;
#192 = CARTESIAN_POINT ( 'NONE',  ( 6.284666409917640040E-14, 9.999999999999998224, 18.00000000000000000 ) ) ;
#193 = ORIENTED_EDGE ( 'NONE', *, *, #114, .F. ) ;
#194 = AXIS2_PLACEMENT_3D ( 'NONE', #144, #118, #81 ) ;
#195 = CC_DESIGN_SECURITY_CLASSIFICATION ( #132, ( #171 ) ) ;
#196 = EDGE_CURVE ( 'NONE', #29, #29, #235, .T. ) ;
#197 = CIRCLE ( 'NONE', #234, 10.00000000000000000 ) ;
#198 = LOCAL_TIME ( 11, 23, 23.00000000000000000, #105 ) ;
#199 = VERTEX_POINT ( 'NONE', #226 ) ;
#200 = PERSON_AND_ORGANIZATION ( #45, #152 ) ;
#201 = CC_DESIGN_PERSON_AND_ORGANIZATION_ASSIGNMENT ( #156, #135, ( #171 ) ) ;
#202 = DATE_AND_TIME ( #179, #58 ) ;
#203 = PLANE ( 'NONE',  #10 ) ;
#204 = PERSON_AND_ORGANIZATION ( #45, #152 ) ;
#205 = EDGE_LOOP ( 'NONE', ( #23 ) ) ;
#206 = FACE_OUTER_BOUND ( 'NONE', #4, .T. ) ;
#207 = CONICAL_SURFACE ( 'NONE', #87, 9.500000000000000000, 0.7853981633974482790 ) ;
#208 = DIRECTION ( 'NONE',  ( 0.000000000000000000, 1.000000000000000000, 0.000000000000000000 ) ) ;
#209 = FACE_BOUND ( 'NONE', #216, .T. ) ;
#210 = SHAPE_DEFINITION_REPRESENTATION ( #217, #157 ) ;
#211 = MECHANICAL_CONTEXT ( 'NONE', #115, 'mechanical' ) ;
#212 = EDGE_CURVE ( 'NONE', #137, #137, #178, .T. ) ;
#213 = CALENDAR_DATE ( 2024, 12, 7 ) ;
#214 = ORIENTED_EDGE ( 'NONE', *, *, #84, .T. ) ;
#215 = AXIS2_PLACEMENT_3D ( 'NONE', #34, #100, #183 ) ;
#216 = EDGE_LOOP ( 'NONE', ( #148 ) ) ;
#217 = PRODUCT_DEFINITION_SHAPE ( 'NONE', 'NONE',  #129 ) ;
#218 =( GEOMETRIC_REPRESENTATION_CONTEXT ( 3 ) GLOBAL_UNCERTAINTY_ASSIGNED_CONTEXT ( ( #182 ) ) GLOBAL_UNIT_ASSIGNED_CONTEXT ( ( #39, #77, #143 ) ) REPRESENTATION_CONTEXT ( 'NONE', 'WORKASPACE' ) );
#219 = EDGE_LOOP ( 'NONE', ( #7 ) ) ;
#220 = CALENDAR_DATE ( 2024, 12, 7 ) ;
#221 = EDGE_LOOP ( 'NONE', ( #214 ) ) ;
#222 = DIRECTION ( 'NONE',  ( 3.491481338843133355E-15, -1.224646799147353454E-16, 1.000000000000000000 ) ) ;
#223 = MANIFOLD_SOLID_BREP ( 'Corps-Déplacer/Copier1[1]', #51 ) ;
#224 = FACE_OUTER_BOUND ( 'NONE', #177, .T. ) ;
#225 = LOCAL_TIME ( 11, 23, 23.00000000000000000, #68 ) ;
#226 = CARTESIAN_POINT ( 'NONE',  ( 6.284666409917640040E-14, 9.499999999999996447, 18.00000000000000000 ) ) ;
#227 = DIRECTION ( 'NONE',  ( -3.491481338843133355E-15, 1.224646799147353454E-16, -1.000000000000000000 ) ) ;
#228 = FACE_OUTER_BOUND ( 'NONE', #173, .T. ) ;
#229 = DIRECTION ( 'NONE',  ( -3.491481338843133355E-15, 1.224646799147353454E-16, -1.000000000000000000 ) ) ;
#230 = APPROVAL ( #133, 'UNSPECIFIED' ) ;
#231 = PERSON_AND_ORGANIZATION_ROLE ( 'design_owner' ) ;
#232 = DESIGN_CONTEXT ( 'detailed design', #126, 'design' ) ;
#233 = DIRECTION ( 'NONE',  ( 0.000000000000000000, 1.000000000000000000, 0.000000000000000000 ) ) ;
#234 = AXIS2_PLACEMENT_3D ( 'NONE', #102, #71, #36 ) ;
#235 = CIRCLE ( 'NONE', #83, 9.999999999999992895 ) ;
#236 = CALENDAR_DATE ( 2024, 12, 7 ) ;
#237 = PERSON_AND_ORGANIZATION ( #45, #152 ) ;
#238 = CC_DESIGN_APPROVAL ( #230, ( #132 ) ) ;
#239 = CARTESIAN_POINT ( 'NONE',  ( 6.284666409917640040E-14, 7.123858967643823090E-32, 18.00000000000000000 ) ) ;
#240 = DIRECTION ( 'NONE',  ( -3.491481338843133355E-15, 1.224646799147353454E-16, -1.000000000000000000 ) ) ;
#241 = FACE_OUTER_BOUND ( 'NONE', #41, .T. ) ;
#242 = PLANE ( 'NONE',  #155 ) ;
#243 = AXIS2_PLACEMENT_3D ( 'NONE', #74, #104, #208 ) ;
ENDSEC;
END-ISO-10303-21;
