ISO-10303-21;
HEADER;
FILE_DESCRIPTION (( 'STEP AP203' ),
    '1' );
FILE_NAME ('976421.step',
    '2024-07-12T09:23:22',
    ( '' ),
    ( '' ),
    'SwSTEP 2.0',
    'SolidWorks 2022',
    '' );
FILE_SCHEMA (( 'CONFIG_CONTROL_DESIGN' ));
ENDSEC;

DATA;
#1 = ADVANCED_FACE ( 'NONE', ( #240, #181 ), #58, .T. ) ;
#2 = MANIFOLD_SOLID_BREP ( 'Corps-Déplacer/Copier1[1]', #206 ) ;
#3 = APPROVAL_PERSON_ORGANIZATION ( #11, #111, #44 ) ;
#4 = EDGE_CURVE ( 'NONE', #37, #37, #153, .T. ) ;
#5 = ADVANCED_FACE ( 'NONE', ( #88 ), #134, .F. ) ;
#6 = CARTESIAN_POINT ( 'NONE',  ( 1.483879569008331865E-13, -5.204748896376250896E-15, 42.50000000000000000 ) ) ;
#7 = ORIENTED_EDGE ( 'NONE', *, *, #62, .F. ) ;
#8 = EDGE_LOOP ( 'NONE', ( #97 ) ) ;
#9 = DATE_TIME_ROLE ( 'creation_date' ) ;
#10 = ORIENTED_EDGE ( 'NONE', *, *, #4, .T. ) ;
#11 = PERSON_AND_ORGANIZATION ( #221, #198 ) ;
#12 = AXIS2_PLACEMENT_3D ( 'NONE', #63, #135, #28 ) ;
#13 = DIRECTION ( 'NONE',  ( 4.275831445896958607E-31, 1.000000000000000000, 1.224646799147353207E-16 ) ) ;
#14 = APPROVAL_DATE_TIME ( #122, #129 ) ;
#15 = PLANE ( 'NONE',  #31 ) ;
#16 = DATE_AND_TIME ( #29, #69 ) ;
#17 = DIRECTION ( 'NONE',  ( 0.000000000000000000, -1.000000000000000000, 0.000000000000000000 ) ) ;
#18 = AXIS2_PLACEMENT_3D ( 'NONE', #34, #108, #17 ) ;
#19 = LOCAL_TIME ( 11, 23, 22.00000000000000000, #241 ) ;
#20 = CARTESIAN_POINT ( 'NONE',  ( 0.000000000000000000, 0.000000000000000000, 0.000000000000000000 ) ) ;
#21 = CC_DESIGN_PERSON_AND_ORGANIZATION_ASSIGNMENT ( #140, #177, ( #52 ) ) ;
#22 = CIRCLE ( 'NONE', #95, 8.000000000000000000 ) ;
#23 = MECHANICAL_CONTEXT ( 'NONE', #226, 'mechanical' ) ;
#24 = VERTEX_POINT ( 'NONE', #116 ) ;
#25 = AXIS2_PLACEMENT_3D ( 'NONE', #185, #50, #164 ) ;
#26 = EDGE_LOOP ( 'NONE', ( #45 ) ) ;
#27 = PERSON_AND_ORGANIZATION ( #221, #198 ) ;
#28 = DIRECTION ( 'NONE',  ( 8.217301096052208642E-31, 1.000000000000000000, 2.312964634635743450E-16 ) ) ;
#29 = CALENDAR_DATE ( 2024, 12, 7 ) ;
#30 = CARTESIAN_POINT ( 'NONE',  ( 3.212162831735682182E-13, -1.126675055215564941E-14, 92.00000000000000000 ) ) ;
#31 = AXIS2_PLACEMENT_3D ( 'NONE', #141, #232, #48 ) ;
#32 = ORIENTED_EDGE ( 'NONE', *, *, #212, .F. ) ;
#33 = ORIENTED_EDGE ( 'NONE', *, *, #84, .F. ) ;
#34 = CARTESIAN_POINT ( 'NONE',  ( 1.466422162314116009E-13, -5.143516556418883322E-15, 42.00000000000000000 ) ) ;
#35 = AXIS2_PLACEMENT_3D ( 'NONE', #57, #197, #143 ) ;
#36 = AXIS2_PLACEMENT_3D ( 'NONE', #6, #77, #205 ) ;
#37 = VERTEX_POINT ( 'NONE', #38 ) ;
#38 = CARTESIAN_POINT ( 'NONE',  ( 3.212162831735682182E-13, 6.999999999999984901, 92.00000000000000000 ) ) ;
#39 = EDGE_LOOP ( 'NONE', ( #217 ) ) ;
#40 = DIRECTION ( 'NONE',  ( 7.703719777548943412E-31, 1.000000000000000000, 2.168404344971008868E-16 ) ) ;
#41 = SECURITY_CLASSIFICATION_LEVEL ( 'unclassified' ) ;
#42 = CC_DESIGN_APPROVAL ( #180, ( #223 ) ) ;
#43 = EDGE_LOOP ( 'NONE', ( #208 ) ) ;
#44 = APPROVAL_ROLE ( '' ) ;
#45 = ORIENTED_EDGE ( 'NONE', *, *, #203, .T. ) ;
#46 = ADVANCED_FACE ( 'NONE', ( #65 ), #15, .F. ) ;
#47 = CALENDAR_DATE ( 2024, 12, 7 ) ;
#48 = DIRECTION ( 'NONE',  ( 4.275831445896958607E-31, 1.000000000000000000, 1.224646799147353207E-16 ) ) ;
#49 = APPROVAL_PERSON_ORGANIZATION ( #27, #129, #158 ) ;
#50 = DIRECTION ( 'NONE',  ( -3.491481338843133355E-15, 1.224646799147353207E-16, -1.000000000000000000 ) ) ;
#51 = FACE_OUTER_BOUND ( 'NONE', #231, .T. ) ;
#52 = PRODUCT ( '976421', '976421', '', ( #23 ) ) ;
#53 =( NAMED_UNIT ( * ) PLANE_ANGLE_UNIT ( ) SI_UNIT ( $, .RADIAN. ) );
#54 = ADVANCED_FACE ( 'NONE', ( #99, #123 ), #178, .T. ) ;
#55 = CARTESIAN_POINT ( 'NONE',  ( -1.710332578358783092E-30, 5.999039130647430431E-32, -4.898587196589412829E-16 ) ) ;
#56 = APPLICATION_PROTOCOL_DEFINITION ( 'international standard', 'config_control_design', 1994, #226 ) ;
#57 = CARTESIAN_POINT ( 'NONE',  ( 0.000000000000000000, 0.000000000000000000, 0.000000000000000000 ) ) ;
#58 = CYLINDRICAL_SURFACE ( 'NONE', #61, 8.000000000000000000 ) ;
#59 = PERSON_AND_ORGANIZATION ( #221, #198 ) ;
#60 = CONICAL_SURFACE ( 'NONE', #18, 7.500000000000000000, 0.7853981633974430610 ) ;
#61 = AXIS2_PLACEMENT_3D ( 'NONE', #200, #195, #13 ) ;
#62 = EDGE_CURVE ( 'NONE', #227, #227, #22, .T. ) ;
#63 = CARTESIAN_POINT ( 'NONE',  ( 4.888073874380385435E-14, -1.714505518806294244E-15, 13.99999999999999645 ) ) ;
#64 = DATE_AND_TIME ( #183, #152 ) ;
#65 = FACE_OUTER_BOUND ( 'NONE', #80, .T. ) ;
#66 = DATE_TIME_ROLE ( 'classification_date' ) ;
#67 = ORIENTED_EDGE ( 'NONE', *, *, #4, .F. ) ;
#68 = PRODUCT_RELATED_PRODUCT_CATEGORY ( 'detail', '', ( #52 ) ) ;
#69 = LOCAL_TIME ( 11, 23, 22.00000000000000000, #120 ) ;
#70 = DIRECTION ( 'NONE',  ( -4.275831445896958607E-31, -1.000000000000000000, -1.224646799147353207E-16 ) ) ;
#71 = APPLICATION_CONTEXT ( 'configuration controlled 3d designs of mechanical parts and assemblies' ) ;
#72 = CONICAL_SURFACE ( 'NONE', #243, 6.999999999999995559, 0.7853981633974473908 ) ;
#73 = CARTESIAN_POINT ( 'NONE',  ( 1.466422162314116009E-13, 7.499999999999994671, 42.00000000000000000 ) ) ;
#74 = SECURITY_CLASSIFICATION ( '', '', #41 ) ;
#75 = PRODUCT_DEFINITION_FORMATION_WITH_SPECIFIED_SOURCE ( 'ANY', '', #52, .NOT_KNOWN. ) ;
#76 = DIRECTION ( 'NONE',  ( -3.491481338843133355E-15, 1.224646799147353207E-16, -1.000000000000000000 ) ) ;
#77 = DIRECTION ( 'NONE',  ( -3.491481338843133355E-15, 1.224646799147353207E-16, -1.000000000000000000 ) ) ;
#78 = CC_DESIGN_APPROVAL ( #129, ( #75 ) ) ;
#79 = CARTESIAN_POINT ( 'NONE',  ( 1.483879569008331865E-13, 7.999999999999989342, 42.50000000000000000 ) ) ;
#80 = EDGE_LOOP ( 'NONE', ( #67 ) ) ;
#81 = APPROVAL_DATE_TIME ( #211, #180 ) ;
#82 = EDGE_LOOP ( 'NONE', ( #192 ) ) ;
#83 = PERSON_AND_ORGANIZATION_ROLE ( 'creator' ) ;
#84 = EDGE_CURVE ( 'NONE', #225, #225, #188, .T. ) ;
#85 = DIRECTION ( 'NONE',  ( -4.275831445896958607E-31, -1.000000000000000000, -1.224646799147353207E-16 ) ) ;
#86 = PERSON_AND_ORGANIZATION_ROLE ( 'creator' ) ;
#87 = AXIS2_PLACEMENT_3D ( 'NONE', #194, #176, #236 ) ;
#88 = FACE_OUTER_BOUND ( 'NONE', #235, .T. ) ;
#89 = CARTESIAN_POINT ( 'NONE',  ( 3.212162831735682182E-13, -1.126675055215564941E-14, 92.00000000000000000 ) ) ;
#90 = FACE_OUTER_BOUND ( 'NONE', #238, .T. ) ;
#91 = CIRCLE ( 'NONE', #202, 7.500000000000000000 ) ;
#92 = CC_DESIGN_PERSON_AND_ORGANIZATION_ASSIGNMENT ( #199, #86, ( #75 ) ) ;
#93 = ADVANCED_FACE ( 'NONE', ( #105, #184 ), #72, .T. ) ;
#94 = PRODUCT_DEFINITION_SHAPE ( 'NONE', 'NONE',  #223 ) ;
#95 = AXIS2_PLACEMENT_3D ( 'NONE', #219, #210, #40 ) ;
#96 = PLANE ( 'NONE',  #165 ) ;
#97 = ORIENTED_EDGE ( 'NONE', *, *, #203, .F. ) ;
#98 = CARTESIAN_POINT ( 'NONE',  ( 4.888073874380386066E-14, 7.499999999999996447, 13.99999999999999822 ) ) ;
#99 = FACE_OUTER_BOUND ( 'NONE', #43, .T. ) ;
#100 = EDGE_CURVE ( 'NONE', #191, #191, #224, .T. ) ;
#101 = APPLICATION_PROTOCOL_DEFINITION ( 'international standard', 'config_control_design', 1994, #71 ) ;
#102 = FACE_OUTER_BOUND ( 'NONE', #173, .T. ) ;
#103 = DIRECTION ( 'NONE',  ( 0.000000000000000000, 1.000000000000000000, 0.000000000000000000 ) ) ;
#104 = COORDINATED_UNIVERSAL_TIME_OFFSET ( 1, 0, .AHEAD. ) ;
#105 = FACE_OUTER_BOUND ( 'NONE', #8, .T. ) ;
#106 = PERSON_AND_ORGANIZATION ( #221, #198 ) ;
#107 = DIRECTION ( 'NONE',  ( -3.491481338843133355E-15, 1.224646799147353207E-16, -1.000000000000000000 ) ) ;
#108 = DIRECTION ( 'NONE',  ( 3.491481338843133355E-15, -1.224646799147353207E-16, 1.000000000000000000 ) ) ;
#109 = LOCAL_TIME ( 11, 23, 22.00000000000000000, #214 ) ;
#110 = ADVANCED_FACE ( 'NONE', ( #102, #163 ), #215, .T. ) ;
#111 = APPROVAL ( #193, 'UNSPECIFIED' ) ;
#112 =( LENGTH_UNIT ( ) NAMED_UNIT ( * ) SI_UNIT ( .MILLI., .METRE. ) );
#113 = CC_DESIGN_DATE_AND_TIME_ASSIGNMENT ( #64, #9, ( #223 ) ) ;
#114 = ORIENTED_EDGE ( 'NONE', *, *, #100, .T. ) ;
#115 = CARTESIAN_POINT ( 'NONE',  ( 6.842277657836020854E-46, 8.000000000000000000, 0.000000000000000000 ) ) ;
#116 = CARTESIAN_POINT ( 'NONE',  ( 3.177248018347251480E-13, 7.999999999999984901, 91.00000000000000000 ) ) ;
#117 = ORIENTED_EDGE ( 'NONE', *, *, #62, .T. ) ;
#118 = DATE_AND_TIME ( #179, #109 ) ;
#119 = DIRECTION ( 'NONE',  ( 3.491481338843133355E-15, -1.224646799147353207E-16, 1.000000000000000000 ) ) ;
#120 = COORDINATED_UNIVERSAL_TIME_OFFSET ( 1, 0, .AHEAD. ) ;
#121 = EDGE_LOOP ( 'NONE', ( #33 ) ) ;
#122 = DATE_AND_TIME ( #47, #186 ) ;
#123 = FACE_OUTER_BOUND ( 'NONE', #82, .T. ) ;
#124 = EDGE_LOOP ( 'NONE', ( #117 ) ) ;
#125 = FACE_BOUND ( 'NONE', #133, .T. ) ;
#126 = ADVANCED_FACE ( 'NONE', ( #90 ), #222, .T. ) ;
#127 = ADVANCED_BREP_SHAPE_REPRESENTATION ( '976421', ( #2, #166, #182 ), #148 ) ;
#128 = UNCERTAINTY_MEASURE_WITH_UNIT (LENGTH_MEASURE( 1.000000000000000082E-05 ), #112, 'distance_accuracy_value', 'NONE');
#129 = APPROVAL ( #142, 'UNSPECIFIED' ) ;
#130 = ADVANCED_FACE ( 'NONE', ( #51, #125 ), #60, .T. ) ;
#131 = CIRCLE ( 'NONE', #36, 7.999999999999994671 ) ;
#132 = CARTESIAN_POINT ( 'NONE',  ( 1.466422162314116009E-13, -5.143516556418883322E-15, 42.00000000000000000 ) ) ;
#133 = EDGE_LOOP ( 'NONE', ( #155 ) ) ;
#134 = PLANE ( 'NONE',  #171 ) ;
#135 = DIRECTION ( 'NONE',  ( -3.491481338843133355E-15, 1.224646799147353207E-16, -1.000000000000000000 ) ) ;
#136 = CC_DESIGN_SECURITY_CLASSIFICATION ( #74, ( #75 ) ) ;
#137 = CLOSED_SHELL ( 'NONE', ( #160, #1, #126 ) ) ;
#138 = PERSON_AND_ORGANIZATION_ROLE ( 'design_supplier' ) ;
#139 = DIRECTION ( 'NONE',  ( 0.000000000000000000, 1.000000000000000000, 0.000000000000000000 ) ) ;
#140 = PERSON_AND_ORGANIZATION ( #221, #198 ) ;
#141 = CARTESIAN_POINT ( 'NONE',  ( 3.212162831735682182E-13, 5.249159239316481922E-32, 92.00000000000000000 ) ) ;
#142 = APPROVAL_STATUS ( 'not_yet_approved' ) ;
#143 = DIRECTION ( 'NONE',  ( 4.275831445896959482E-31, 1.000000000000000000, 1.224646799147353207E-16 ) ) ;
#144 = CIRCLE ( 'NONE', #167, 7.999999999999994671 ) ;
#145 = CARTESIAN_POINT ( 'NONE',  ( 4.888073874380386066E-14, 5.999039130647427147E-32, 13.99999999999999822 ) ) ;
#146 = AXIS2_PLACEMENT_3D ( 'NONE', #145, #201, #70 ) ;
#147 = DIRECTION ( 'NONE',  ( 0.000000000000000000, 1.000000000000000000, 0.000000000000000000 ) ) ;
#148 =( GEOMETRIC_REPRESENTATION_CONTEXT ( 3 ) GLOBAL_UNCERTAINTY_ASSIGNED_CONTEXT ( ( #128 ) ) GLOBAL_UNIT_ASSIGNED_CONTEXT ( ( #112, #53, #174 ) ) REPRESENTATION_CONTEXT ( 'NONE', 'WORKASPACE' ) );
#149 = CARTESIAN_POINT ( 'NONE',  ( 3.177248018347251480E-13, -1.114428587224091426E-14, 91.00000000000000000 ) ) ;
#150 = VERTEX_POINT ( 'NONE', #73 ) ;
#151 = DIRECTION ( 'NONE',  ( 4.275831445896958607E-31, 1.000000000000000000, 1.224646799147353207E-16 ) ) ;
#152 = LOCAL_TIME ( 11, 23, 22.00000000000000000, #104 ) ;
#153 = CIRCLE ( 'NONE', #189, 6.999999999999995559 ) ;
#154 = CC_DESIGN_PERSON_AND_ORGANIZATION_ASSIGNMENT ( #233, #196, ( #74 ) ) ;
#155 = ORIENTED_EDGE ( 'NONE', *, *, #169, .F. ) ;
#156 = COORDINATED_UNIVERSAL_TIME_OFFSET ( 1, 0, .AHEAD. ) ;
#157 = DIRECTION ( 'NONE',  ( -3.491481338843133355E-15, 1.224646799147353207E-16, -1.000000000000000000 ) ) ;
#158 = APPROVAL_ROLE ( '' ) ;
#159 = CARTESIAN_POINT ( 'NONE',  ( 4.888073874380386066E-14, 5.624099184981962198E-32, 13.99999999999999822 ) ) ;
#160 = ADVANCED_FACE ( 'NONE', ( #242 ), #96, .T. ) ;
#161 = EDGE_LOOP ( 'NONE', ( #10 ) ) ;
#162 = SHAPE_DEFINITION_REPRESENTATION ( #94, #127 ) ;
#163 = FACE_OUTER_BOUND ( 'NONE', #26, .T. ) ;
#164 = DIRECTION ( 'NONE',  ( 4.275831445896957731E-31, 1.000000000000000000, 1.224646799147353207E-16 ) ) ;
#165 = AXIS2_PLACEMENT_3D ( 'NONE', #55, #76, #151 ) ;
#166 = MANIFOLD_SOLID_BREP ( 'Corps-Déplacer/Copier1[2]', #137 ) ;
#167 = AXIS2_PLACEMENT_3D ( 'NONE', #149, #207, #172 ) ;
#168 = DESIGN_CONTEXT ( 'detailed design', #71, 'design' ) ;
#169 = EDGE_CURVE ( 'NONE', #150, #150, #91, .T. ) ;
#170 = DIRECTION ( 'NONE',  ( 0.000000000000000000, 0.000000000000000000, 1.000000000000000000 ) ) ;
#171 = AXIS2_PLACEMENT_3D ( 'NONE', #159, #119, #85 ) ;
#172 = DIRECTION ( 'NONE',  ( 0.000000000000000000, 1.000000000000000000, 0.000000000000000000 ) ) ;
#173 = EDGE_LOOP ( 'NONE', ( #32 ) ) ;
#174 =( NAMED_UNIT ( * ) SI_UNIT ( $, .STERADIAN. ) SOLID_ANGLE_UNIT ( ) );
#175 = APPROVAL_ROLE ( '' ) ;
#176 = DIRECTION ( 'NONE',  ( -3.491481338843133355E-15, 1.224646799147353207E-16, -1.000000000000000000 ) ) ;
#177 = PERSON_AND_ORGANIZATION_ROLE ( 'design_owner' ) ;
#178 = CYLINDRICAL_SURFACE ( 'NONE', #35, 7.499999999999999112 ) ;
#179 = CALENDAR_DATE ( 2024, 12, 7 ) ;
#180 = APPROVAL ( #216, 'UNSPECIFIED' ) ;
#181 = FACE_OUTER_BOUND ( 'NONE', #121, .T. ) ;
#182 = AXIS2_PLACEMENT_3D ( 'NONE', #20, #170, #187 ) ;
#183 = CALENDAR_DATE ( 2024, 12, 7 ) ;
#184 = FACE_BOUND ( 'NONE', #161, .T. ) ;
#185 = CARTESIAN_POINT ( 'NONE',  ( 0.000000000000000000, 0.000000000000000000, 0.000000000000000000 ) ) ;
#186 = LOCAL_TIME ( 11, 23, 22.00000000000000000, #156 ) ;
#187 = DIRECTION ( 'NONE',  ( 1.000000000000000000, 0.000000000000000000, 0.000000000000000000 ) ) ;
#188 = CIRCLE ( 'NONE', #87, 8.000000000000000000 ) ;
#189 = AXIS2_PLACEMENT_3D ( 'NONE', #30, #107, #103 ) ;
#190 = CARTESIAN_POINT ( 'NONE',  ( 4.888073874380386066E-14, 7.999999999999998224, 13.99999999999999822 ) ) ;
#191 = VERTEX_POINT ( 'NONE', #98 ) ;
#192 = ORIENTED_EDGE ( 'NONE', *, *, #100, .F. ) ;
#193 = APPROVAL_STATUS ( 'not_yet_approved' ) ;
#194 = CARTESIAN_POINT ( 'NONE',  ( -3.420665156717566185E-30, 1.199807826129486086E-31, -9.797174393178825657E-16 ) ) ;
#195 = DIRECTION ( 'NONE',  ( -3.491481338843133355E-15, 1.224646799147353207E-16, -1.000000000000000000 ) ) ;
#196 = PERSON_AND_ORGANIZATION_ROLE ( 'classification_officer' ) ;
#197 = DIRECTION ( 'NONE',  ( -3.491481338843133355E-15, 1.224646799147353207E-16, -1.000000000000000000 ) ) ;
#198 = ORGANIZATION ( 'UNSPECIFIED', 'UNSPECIFIED', '' ) ;
#199 = PERSON_AND_ORGANIZATION ( #221, #198 ) ;
#200 = CARTESIAN_POINT ( 'NONE',  ( 0.000000000000000000, 0.000000000000000000, 0.000000000000000000 ) ) ;
#201 = DIRECTION ( 'NONE',  ( 3.491481338843133355E-15, -1.224646799147353207E-16, 1.000000000000000000 ) ) ;
#202 = AXIS2_PLACEMENT_3D ( 'NONE', #132, #209, #147 ) ;
#203 = EDGE_CURVE ( 'NONE', #24, #24, #144, .T. ) ;
#204 = CC_DESIGN_DATE_AND_TIME_ASSIGNMENT ( #118, #66, ( #74 ) ) ;
#205 = DIRECTION ( 'NONE',  ( 0.000000000000000000, 1.000000000000000000, 0.000000000000000000 ) ) ;
#206 = CLOSED_SHELL ( 'NONE', ( #5, #54, #130, #110, #93, #46 ) ) ;
#207 = DIRECTION ( 'NONE',  ( -3.491481338843133355E-15, 1.224646799147353207E-16, -1.000000000000000000 ) ) ;
#208 = ORIENTED_EDGE ( 'NONE', *, *, #169, .T. ) ;
#209 = DIRECTION ( 'NONE',  ( -3.491481338843133355E-15, 1.224646799147353207E-16, -1.000000000000000000 ) ) ;
#210 = DIRECTION ( 'NONE',  ( -3.491481338843133355E-15, 1.224646799147353207E-16, -1.000000000000000000 ) ) ;
#211 = DATE_AND_TIME ( #237, #19 ) ;
#212 = EDGE_CURVE ( 'NONE', #228, #228, #131, .T. ) ;
#213 = ORIENTED_EDGE ( 'NONE', *, *, #212, .T. ) ;
#214 = COORDINATED_UNIVERSAL_TIME_OFFSET ( 1, 0, .AHEAD. ) ;
#215 = CYLINDRICAL_SURFACE ( 'NONE', #25, 7.999999999999994671 ) ;
#216 = APPROVAL_STATUS ( 'not_yet_approved' ) ;
#217 = ORIENTED_EDGE ( 'NONE', *, *, #84, .T. ) ;
#218 = APPROVAL_DATE_TIME ( #16, #111 ) ;
#219 = CARTESIAN_POINT ( 'NONE',  ( 4.888073874380385435E-14, -1.714505518806294244E-15, 13.99999999999999645 ) ) ;
#220 = CC_DESIGN_APPROVAL ( #111, ( #74 ) ) ;
#221 = PERSON ( 'UNSPECIFIED', 'UNSPECIFIED', 'UNSPECIFIED', ('UNSPECIFIED'), ('UNSPECIFIED'), ('UNSPECIFIED') ) ;
#222 = PLANE ( 'NONE',  #146 ) ;
#223 = PRODUCT_DEFINITION ( 'UNKNOWN', '', #75, #168 ) ;
#224 = CIRCLE ( 'NONE', #12, 7.499999999999998224 ) ;
#225 = VERTEX_POINT ( 'NONE', #115 ) ;
#226 = APPLICATION_CONTEXT ( 'configuration controlled 3d designs of mechanical parts and assemblies' ) ;
#227 = VERTEX_POINT ( 'NONE', #190 ) ;
#228 = VERTEX_POINT ( 'NONE', #79 ) ;
#229 = CC_DESIGN_PERSON_AND_ORGANIZATION_ASSIGNMENT ( #106, #83, ( #223 ) ) ;
#230 = APPROVAL_PERSON_ORGANIZATION ( #239, #180, #175 ) ;
#231 = EDGE_LOOP ( 'NONE', ( #213 ) ) ;
#232 = DIRECTION ( 'NONE',  ( -3.491481338843133355E-15, 1.224646799147353207E-16, -1.000000000000000000 ) ) ;
#233 = PERSON_AND_ORGANIZATION ( #221, #198 ) ;
#234 = CC_DESIGN_PERSON_AND_ORGANIZATION_ASSIGNMENT ( #59, #138, ( #75 ) ) ;
#235 = EDGE_LOOP ( 'NONE', ( #114 ) ) ;
#236 = DIRECTION ( 'NONE',  ( 4.275831445896958607E-31, 1.000000000000000000, 1.224646799147353207E-16 ) ) ;
#237 = CALENDAR_DATE ( 2024, 12, 7 ) ;
#238 = EDGE_LOOP ( 'NONE', ( #7 ) ) ;
#239 = PERSON_AND_ORGANIZATION ( #221, #198 ) ;
#240 = FACE_OUTER_BOUND ( 'NONE', #124, .T. ) ;
#241 = COORDINATED_UNIVERSAL_TIME_OFFSET ( 1, 0, .AHEAD. ) ;
#242 = FACE_OUTER_BOUND ( 'NONE', #39, .T. ) ;
#243 = AXIS2_PLACEMENT_3D ( 'NONE', #89, #157, #139 ) ;
ENDSEC;
END-ISO-10303-21;
