ISO-10303-21;
HEADER;
FILE_DESCRIPTION (( 'STEP AP203' ),
    '1' );
FILE_NAME ('976420.step',
    '2024-07-12T09:23:21',
    ( '' ),
    ( '' ),
    'SwSTEP 2.0',
    'SolidWorks 2022',
    '' );
FILE_SCHEMA (( 'CONFIG_CONTROL_DESIGN' ));
ENDSEC;

DATA;
#1 = ADVANCED_FACE ( 'NONE', ( #30, #93 ), #48, .T. ) ;
#2 = DIRECTION ( 'NONE',  ( 4.275831445896958607E-31, 1.000000000000000000, 1.224646799147353207E-16 ) ) ;
#3 = CC_DESIGN_PERSON_AND_ORGANIZATION_ASSIGNMENT ( #78, #233, ( #167 ) ) ;
#4 = APPROVAL_PERSON_ORGANIZATION ( #96, #214, #8 ) ;
#5 = ADVANCED_FACE ( 'NONE', ( #221, #151 ), #11, .T. ) ;
#6 = EDGE_LOOP ( 'NONE', ( #84 ) ) ;
#7 = APPROVAL ( #148, 'UNSPECIFIED' ) ;
#8 = APPROVAL_ROLE ( '' ) ;
#9 = EDGE_LOOP ( 'NONE', ( #64 ) ) ;
#10 = DIRECTION ( 'NONE',  ( -3.491481338843133355E-15, 1.224646799147353207E-16, -1.000000000000000000 ) ) ;
#11 = CYLINDRICAL_SURFACE ( 'NONE', #97, 7.500000000000000000 ) ;
#12 = APPROVAL_ROLE ( '' ) ;
#13 = AXIS2_PLACEMENT_3D ( 'NONE', #174, #242, #69 ) ;
#14 = DIRECTION ( 'NONE',  ( 0.000000000000000000, 1.000000000000000000, 0.000000000000000000 ) ) ;
#15 = CARTESIAN_POINT ( 'NONE',  ( 9.950721815702930694E-14, -3.490243377569956456E-15, 28.50000000000000000 ) ) ;
#16 = EDGE_LOOP ( 'NONE', ( #47 ) ) ;
#17 = ADVANCED_BREP_SHAPE_REPRESENTATION ( '976420', ( #43, #133, #235 ), #202 ) ;
#18 = ORGANIZATION ( 'UNSPECIFIED', 'UNSPECIFIED', '' ) ;
#19 = ADVANCED_FACE ( 'NONE', ( #134, #128 ), #204, .T. ) ;
#20 = ORIENTED_EDGE ( 'NONE', *, *, #177, .F. ) ;
#21 = COORDINATED_UNIVERSAL_TIME_OFFSET ( 1, 0, .AHEAD. ) ;
#22 = ADVANCED_FACE ( 'NONE', ( #178 ), #207, .T. ) ;
#23 = AXIS2_PLACEMENT_3D ( 'NONE', #51, #132, #206 ) ;
#24 = DATE_AND_TIME ( #57, #220 ) ;
#25 = ORIENTED_EDGE ( 'NONE', *, *, #38, .F. ) ;
#26 = MECHANICAL_CONTEXT ( 'NONE', #173, 'mechanical' ) ;
#27 = DESIGN_CONTEXT ( 'detailed design', #89, 'design' ) ;
#28 = CARTESIAN_POINT ( 'NONE',  ( 4.888073874380386066E-14, 7.999999999999998224, 13.99999999999999822 ) ) ;
#29 = DIRECTION ( 'NONE',  ( 7.703719777548943412E-31, 1.000000000000000000, 2.168404344971008868E-16 ) ) ;
#30 = FACE_OUTER_BOUND ( 'NONE', #215, .T. ) ;
#31 = CARTESIAN_POINT ( 'NONE',  ( 9.776147748760772133E-14, -3.429011037612588881E-15, 27.99999999999999645 ) ) ;
#32 = AXIS2_PLACEMENT_3D ( 'NONE', #31, #111, #14 ) ;
#33 = DIRECTION ( 'NONE',  ( -3.491481338843133355E-15, 1.224646799147353207E-16, -1.000000000000000000 ) ) ;
#34 = FACE_OUTER_BOUND ( 'NONE', #9, .T. ) ;
#35 = CARTESIAN_POINT ( 'NONE',  ( 6.842277657836020854E-46, 8.000000000000000000, 0.000000000000000000 ) ) ;
#36 = CYLINDRICAL_SURFACE ( 'NONE', #39, 8.000000000000000000 ) ;
#37 = DATE_AND_TIME ( #161, #44 ) ;
#38 = EDGE_CURVE ( 'NONE', #86, #86, #81, .T. ) ;
#39 = AXIS2_PLACEMENT_3D ( 'NONE', #94, #200, #224 ) ;
#40 = EDGE_CURVE ( 'NONE', #175, #175, #154, .T. ) ;
#41 = EDGE_LOOP ( 'NONE', ( #198 ) ) ;
#42 = APPROVAL_DATE_TIME ( #169, #214 ) ;
#43 = MANIFOLD_SOLID_BREP ( 'Corps-Déplacer/Copier1[1]', #143 ) ;
#44 = LOCAL_TIME ( 11, 23, 21.00000000000000000, #82 ) ;
#45 = AXIS2_PLACEMENT_3D ( 'NONE', #91, #226, #49 ) ;
#46 = COORDINATED_UNIVERSAL_TIME_OFFSET ( 1, 0, .AHEAD. ) ;
#47 = ORIENTED_EDGE ( 'NONE', *, *, #40, .T. ) ;
#48 = CONICAL_SURFACE ( 'NONE', #45, 6.999999999999995559, 0.7853981633974473908 ) ;
#49 = DIRECTION ( 'NONE',  ( 0.000000000000000000, 1.000000000000000000, 0.000000000000000000 ) ) ;
#50 = PLANE ( 'NONE',  #127 ) ;
#51 = CARTESIAN_POINT ( 'NONE',  ( 0.000000000000000000, 0.000000000000000000, 0.000000000000000000 ) ) ;
#52 = CIRCLE ( 'NONE', #240, 6.999999999999995559 ) ;
#53 = PERSON_AND_ORGANIZATION ( #201, #18 ) ;
#54 = FACE_OUTER_BOUND ( 'NONE', #123, .T. ) ;
#55 = CONICAL_SURFACE ( 'NONE', #13, 7.500000000000000000, 0.7853981633974380649 ) ;
#56 = EDGE_LOOP ( 'NONE', ( #243 ) ) ;
#57 = CALENDAR_DATE ( 2024, 12, 7 ) ;
#58 = CARTESIAN_POINT ( 'NONE',  ( 3.212162831735682182E-13, -1.126675055215564941E-14, 92.00000000000000000 ) ) ;
#59 = CIRCLE ( 'NONE', #142, 8.000000000000000000 ) ;
#60 = COORDINATED_UNIVERSAL_TIME_OFFSET ( 1, 0, .AHEAD. ) ;
#61 = ADVANCED_FACE ( 'NONE', ( #155 ), #147, .T. ) ;
#62 = CIRCLE ( 'NONE', #104, 7.499999999999999112 ) ;
#63 = PERSON_AND_ORGANIZATION_ROLE ( 'design_supplier' ) ;
#64 = ORIENTED_EDGE ( 'NONE', *, *, #184, .F. ) ;
#65 = CARTESIAN_POINT ( 'NONE',  ( 9.950721815702930694E-14, 7.999999999999989342, 28.50000000000000000 ) ) ;
#66 = EDGE_LOOP ( 'NONE', ( #90 ) ) ;
#67 = AXIS2_PLACEMENT_3D ( 'NONE', #87, #109, #2 ) ;
#68 = ORIENTED_EDGE ( 'NONE', *, *, #75, .F. ) ;
#69 = DIRECTION ( 'NONE',  ( 0.000000000000000000, -1.000000000000000000, 0.000000000000000000 ) ) ;
#70 = DATE_TIME_ROLE ( 'classification_date' ) ;
#71 = ADVANCED_FACE ( 'NONE', ( #34 ), #50, .F. ) ;
#72 = DIRECTION ( 'NONE',  ( -3.491481338843133355E-15, 1.224646799147353207E-16, -1.000000000000000000 ) ) ;
#73 = CARTESIAN_POINT ( 'NONE',  ( 4.888073874380385435E-14, -1.714505518806294244E-15, 13.99999999999999645 ) ) ;
#74 = VERTEX_POINT ( 'NONE', #158 ) ;
#75 = EDGE_CURVE ( 'NONE', #146, #146, #59, .T. ) ;
#76 = DIRECTION ( 'NONE',  ( 0.000000000000000000, 1.000000000000000000, 0.000000000000000000 ) ) ;
#77 = CARTESIAN_POINT ( 'NONE',  ( 0.000000000000000000, 0.000000000000000000, 0.000000000000000000 ) ) ;
#78 = PERSON_AND_ORGANIZATION ( #201, #18 ) ;
#79 = DIRECTION ( 'NONE',  ( 8.217301096052206890E-31, 1.000000000000000000, 2.312964634635742957E-16 ) ) ;
#80 = APPLICATION_PROTOCOL_DEFINITION ( 'international standard', 'config_control_design', 1994, #89 ) ;
#81 = CIRCLE ( 'NONE', #124, 8.000000000000000000 ) ;
#82 = COORDINATED_UNIVERSAL_TIME_OFFSET ( 1, 0, .AHEAD. ) ;
#83 = PERSON_AND_ORGANIZATION ( #201, #18 ) ;
#84 = ORIENTED_EDGE ( 'NONE', *, *, #126, .F. ) ;
#85 = DIRECTION ( 'NONE',  ( -3.491481338843133355E-15, 1.224646799147353207E-16, -1.000000000000000000 ) ) ;
#86 = VERTEX_POINT ( 'NONE', #28 ) ;
#87 = CARTESIAN_POINT ( 'NONE',  ( -1.710332578358783092E-30, 5.999039130647430431E-32, -4.898587196589412829E-16 ) ) ;
#88 = CALENDAR_DATE ( 2024, 12, 7 ) ;
#89 = APPLICATION_CONTEXT ( 'configuration controlled 3d designs of mechanical parts and assemblies' ) ;
#90 = ORIENTED_EDGE ( 'NONE', *, *, #40, .F. ) ;
#91 = CARTESIAN_POINT ( 'NONE',  ( 3.212162831735682182E-13, -1.126675055215564941E-14, 92.00000000000000000 ) ) ;
#92 = LOCAL_TIME ( 11, 23, 21.00000000000000000, #46 ) ;
#93 = FACE_BOUND ( 'NONE', #41, .T. ) ;
#94 = CARTESIAN_POINT ( 'NONE',  ( 0.000000000000000000, 0.000000000000000000, 0.000000000000000000 ) ) ;
#95 = CC_DESIGN_PERSON_AND_ORGANIZATION_ASSIGNMENT ( #205, #218, ( #153 ) ) ;
#96 = PERSON_AND_ORGANIZATION ( #201, #18 ) ;
#97 = AXIS2_PLACEMENT_3D ( 'NONE', #186, #72, #223 ) ;
#98 = AXIS2_PLACEMENT_3D ( 'NONE', #225, #150, #212 ) ;
#99 = DIRECTION ( 'NONE',  ( 1.000000000000000000, 0.000000000000000000, 0.000000000000000000 ) ) ;
#100 = CC_DESIGN_DATE_AND_TIME_ASSIGNMENT ( #24, #182, ( #105 ) ) ;
#101 = CARTESIAN_POINT ( 'NONE',  ( 4.888073874380386066E-14, 5.624099184981963292E-32, 13.99999999999999822 ) ) ;
#102 = ORIENTED_EDGE ( 'NONE', *, *, #126, .T. ) ;
#103 =( LENGTH_UNIT ( ) NAMED_UNIT ( * ) SI_UNIT ( .MILLI., .METRE. ) );
#104 = AXIS2_PLACEMENT_3D ( 'NONE', #188, #190, #79 ) ;
#105 = PRODUCT_DEFINITION ( 'UNKNOWN', '', #117, #27 ) ;
#106 = EDGE_LOOP ( 'NONE', ( #20 ) ) ;
#107 = CC_DESIGN_PERSON_AND_ORGANIZATION_ASSIGNMENT ( #83, #108, ( #117 ) ) ;
#108 = PERSON_AND_ORGANIZATION_ROLE ( 'creator' ) ;
#109 = DIRECTION ( 'NONE',  ( -3.491481338843133355E-15, 1.224646799147353207E-16, -1.000000000000000000 ) ) ;
#110 = EDGE_LOOP ( 'NONE', ( #219 ) ) ;
#111 = DIRECTION ( 'NONE',  ( -3.491481338843133355E-15, 1.224646799147353207E-16, -1.000000000000000000 ) ) ;
#112 = LOCAL_TIME ( 11, 23, 21.00000000000000000, #157 ) ;
#113 = DIRECTION ( 'NONE',  ( 0.000000000000000000, 1.000000000000000000, 0.000000000000000000 ) ) ;
#114 = FACE_OUTER_BOUND ( 'NONE', #16, .T. ) ;
#115 = CARTESIAN_POINT ( 'NONE',  ( 9.776147748760772133E-14, 7.499999999999996447, 27.99999999999999645 ) ) ;
#116 = PLANE ( 'NONE',  #209 ) ;
#117 = PRODUCT_DEFINITION_FORMATION_WITH_SPECIFIED_SOURCE ( 'ANY', '', #167, .NOT_KNOWN. ) ;
#118 = DATE_AND_TIME ( #88, #112 ) ;
#119 = VERTEX_POINT ( 'NONE', #193 ) ;
#120 =( NAMED_UNIT ( * ) PLANE_ANGLE_UNIT ( ) SI_UNIT ( $, .RADIAN. ) );
#121 = CC_DESIGN_SECURITY_CLASSIFICATION ( #153, ( #117 ) ) ;
#122 = DIRECTION ( 'NONE',  ( 0.000000000000000000, 0.000000000000000000, 1.000000000000000000 ) ) ;
#123 = EDGE_LOOP ( 'NONE', ( #176 ) ) ;
#124 = AXIS2_PLACEMENT_3D ( 'NONE', #73, #156, #29 ) ;
#125 = CALENDAR_DATE ( 2024, 12, 7 ) ;
#126 = EDGE_CURVE ( 'NONE', #228, #228, #197, .T. ) ;
#127 = AXIS2_PLACEMENT_3D ( 'NONE', #131, #85, #185 ) ;
#128 = FACE_OUTER_BOUND ( 'NONE', #183, .T. ) ;
#129 = APPROVAL_STATUS ( 'not_yet_approved' ) ;
#130 = ORIENTED_EDGE ( 'NONE', *, *, #149, .T. ) ;
#131 = CARTESIAN_POINT ( 'NONE',  ( 3.212162831735682182E-13, 5.249159239316481922E-32, 92.00000000000000000 ) ) ;
#132 = DIRECTION ( 'NONE',  ( -3.491481338843133355E-15, 1.224646799147353207E-16, -1.000000000000000000 ) ) ;
#133 = MANIFOLD_SOLID_BREP ( 'Corps-Déplacer/Copier1[2]', #231 ) ;
#134 = FACE_OUTER_BOUND ( 'NONE', #66, .T. ) ;
#135 = FACE_OUTER_BOUND ( 'NONE', #217, .T. ) ;
#136 = APPROVAL_ROLE ( '' ) ;
#137 = ADVANCED_FACE ( 'NONE', ( #114, #187 ), #55, .T. ) ;
#138 = CIRCLE ( 'NONE', #168, 7.999999999999994671 ) ;
#139 = PERSON_AND_ORGANIZATION ( #201, #18 ) ;
#140 = CC_DESIGN_PERSON_AND_ORGANIZATION_ASSIGNMENT ( #216, #63, ( #117 ) ) ;
#141 = CC_DESIGN_APPROVAL ( #214, ( #117 ) ) ;
#142 = AXIS2_PLACEMENT_3D ( 'NONE', #227, #10, #170 ) ;
#143 = CLOSED_SHELL ( 'NONE', ( #203, #5, #137, #19, #1, #71 ) ) ;
#144 = SECURITY_CLASSIFICATION_LEVEL ( 'unclassified' ) ;
#145 = EDGE_LOOP ( 'NONE', ( #102 ) ) ;
#146 = VERTEX_POINT ( 'NONE', #35 ) ;
#147 = PLANE ( 'NONE',  #98 ) ;
#148 = APPROVAL_STATUS ( 'not_yet_approved' ) ;
#149 = EDGE_CURVE ( 'NONE', #191, #191, #138, .T. ) ;
#150 = DIRECTION ( 'NONE',  ( 3.491481338843133355E-15, -1.224646799147353207E-16, 1.000000000000000000 ) ) ;
#151 = FACE_OUTER_BOUND ( 'NONE', #106, .T. ) ;
#152 = APPROVAL_DATE_TIME ( #118, #7 ) ;
#153 = SECURITY_CLASSIFICATION ( '', '', #144 ) ;
#154 = CIRCLE ( 'NONE', #171, 7.999999999999992895 ) ;
#155 = FACE_OUTER_BOUND ( 'NONE', #239, .T. ) ;
#156 = DIRECTION ( 'NONE',  ( -3.491481338843133355E-15, 1.224646799147353207E-16, -1.000000000000000000 ) ) ;
#157 = COORDINATED_UNIVERSAL_TIME_OFFSET ( 1, 0, .AHEAD. ) ;
#158 = CARTESIAN_POINT ( 'NONE',  ( 4.888073874380386066E-14, 7.499999999999997335, 13.99999999999999822 ) ) ;
#159 = DIRECTION ( 'NONE',  ( 3.491481338843133355E-15, -1.224646799147353207E-16, 1.000000000000000000 ) ) ;
#160 = PERSON_AND_ORGANIZATION ( #201, #18 ) ;
#161 = CALENDAR_DATE ( 2024, 12, 7 ) ;
#162 = FACE_OUTER_BOUND ( 'NONE', #56, .T. ) ;
#163 = APPROVAL_PERSON_ORGANIZATION ( #53, #7, #12 ) ;
#164 = APPROVAL_PERSON_ORGANIZATION ( #160, #189, #136 ) ;
#165 = CC_DESIGN_DATE_AND_TIME_ASSIGNMENT ( #208, #70, ( #153 ) ) ;
#166 = ORIENTED_EDGE ( 'NONE', *, *, #149, .F. ) ;
#167 = PRODUCT ( '976420', '976420', '', ( #26 ) ) ;
#168 = AXIS2_PLACEMENT_3D ( 'NONE', #210, #33, #113 ) ;
#169 = DATE_AND_TIME ( #237, #213 ) ;
#170 = DIRECTION ( 'NONE',  ( 4.275831445896958607E-31, 1.000000000000000000, 1.224646799147353207E-16 ) ) ;
#171 = AXIS2_PLACEMENT_3D ( 'NONE', #15, #172, #241 ) ;
#172 = DIRECTION ( 'NONE',  ( -3.491481338843133355E-15, 1.224646799147353207E-16, -1.000000000000000000 ) ) ;
#173 = APPLICATION_CONTEXT ( 'configuration controlled 3d designs of mechanical parts and assemblies' ) ;
#174 = CARTESIAN_POINT ( 'NONE',  ( 9.776147748760772133E-14, -3.429011037612588881E-15, 27.99999999999999645 ) ) ;
#175 = VERTEX_POINT ( 'NONE', #65 ) ;
#176 = ORIENTED_EDGE ( 'NONE', *, *, #38, .T. ) ;
#177 = EDGE_CURVE ( 'NONE', #74, #74, #62, .T. ) ;
#178 = FACE_OUTER_BOUND ( 'NONE', #110, .T. ) ;
#179 = CARTESIAN_POINT ( 'NONE',  ( 3.177248018347251480E-13, 7.999999999999984901, 91.00000000000000000 ) ) ;
#180 =( NAMED_UNIT ( * ) SI_UNIT ( $, .STERADIAN. ) SOLID_ANGLE_UNIT ( ) );
#181 = APPLICATION_PROTOCOL_DEFINITION ( 'international standard', 'config_control_design', 1994, #173 ) ;
#182 = DATE_TIME_ROLE ( 'creation_date' ) ;
#183 = EDGE_LOOP ( 'NONE', ( #130 ) ) ;
#184 = EDGE_CURVE ( 'NONE', #119, #119, #52, .T. ) ;
#185 = DIRECTION ( 'NONE',  ( 4.275831445896958607E-31, 1.000000000000000000, 1.224646799147353207E-16 ) ) ;
#186 = CARTESIAN_POINT ( 'NONE',  ( 0.000000000000000000, 0.000000000000000000, 0.000000000000000000 ) ) ;
#187 = FACE_BOUND ( 'NONE', #6, .T. ) ;
#188 = CARTESIAN_POINT ( 'NONE',  ( 4.888073874380385435E-14, -1.714505518806294244E-15, 13.99999999999999645 ) ) ;
#189 = APPROVAL ( #199, 'UNSPECIFIED' ) ;
#190 = DIRECTION ( 'NONE',  ( -3.491481338843133355E-15, 1.224646799147353207E-16, -1.000000000000000000 ) ) ;
#191 = VERTEX_POINT ( 'NONE', #179 ) ;
#192 = CC_DESIGN_APPROVAL ( #189, ( #105 ) ) ;
#193 = CARTESIAN_POINT ( 'NONE',  ( 3.212162831735682182E-13, 6.999999999999984901, 92.00000000000000000 ) ) ;
#194 = PRODUCT_DEFINITION_SHAPE ( 'NONE', 'NONE',  #105 ) ;
#195 = UNCERTAINTY_MEASURE_WITH_UNIT (LENGTH_MEASURE( 1.000000000000000082E-05 ), #103, 'distance_accuracy_value', 'NONE');
#196 = DIRECTION ( 'NONE',  ( -3.491481338843133355E-15, 1.224646799147353207E-16, -1.000000000000000000 ) ) ;
#197 = CIRCLE ( 'NONE', #32, 7.500000000000000000 ) ;
#198 = ORIENTED_EDGE ( 'NONE', *, *, #184, .T. ) ;
#199 = APPROVAL_STATUS ( 'not_yet_approved' ) ;
#200 = DIRECTION ( 'NONE',  ( -3.491481338843133355E-15, 1.224646799147353207E-16, -1.000000000000000000 ) ) ;
#201 = PERSON ( 'UNSPECIFIED', 'UNSPECIFIED', 'UNSPECIFIED', ('UNSPECIFIED'), ('UNSPECIFIED'), ('UNSPECIFIED') ) ;
#202 =( GEOMETRIC_REPRESENTATION_CONTEXT ( 3 ) GLOBAL_UNCERTAINTY_ASSIGNED_CONTEXT ( ( #195 ) ) GLOBAL_UNIT_ASSIGNED_CONTEXT ( ( #103, #120, #180 ) ) REPRESENTATION_CONTEXT ( 'NONE', 'WORKASPACE' ) );
#203 = ADVANCED_FACE ( 'NONE', ( #162 ), #116, .F. ) ;
#204 = CYLINDRICAL_SURFACE ( 'NONE', #23, 7.999999999999992895 ) ;
#205 = PERSON_AND_ORGANIZATION ( #201, #18 ) ;
#206 = DIRECTION ( 'NONE',  ( 4.275831445896957731E-31, 1.000000000000000000, 1.224646799147353207E-16 ) ) ;
#207 = PLANE ( 'NONE',  #67 ) ;
#208 = DATE_AND_TIME ( #125, #92 ) ;
#209 = AXIS2_PLACEMENT_3D ( 'NONE', #101, #159, #229 ) ;
#210 = CARTESIAN_POINT ( 'NONE',  ( 3.177248018347251480E-13, -1.114428587224091426E-14, 91.00000000000000000 ) ) ;
#211 = ADVANCED_FACE ( 'NONE', ( #54, #135 ), #36, .T. ) ;
#212 = DIRECTION ( 'NONE',  ( -4.275831445896958607E-31, -1.000000000000000000, -1.224646799147353207E-16 ) ) ;
#213 = LOCAL_TIME ( 11, 23, 21.00000000000000000, #60 ) ;
#214 = APPROVAL ( #129, 'UNSPECIFIED' ) ;
#215 = EDGE_LOOP ( 'NONE', ( #166 ) ) ;
#216 = PERSON_AND_ORGANIZATION ( #201, #18 ) ;
#217 = EDGE_LOOP ( 'NONE', ( #68 ) ) ;
#218 = PERSON_AND_ORGANIZATION_ROLE ( 'classification_officer' ) ;
#219 = ORIENTED_EDGE ( 'NONE', *, *, #75, .T. ) ;
#220 = LOCAL_TIME ( 11, 23, 21.00000000000000000, #21 ) ;
#221 = FACE_OUTER_BOUND ( 'NONE', #145, .T. ) ;
#222 = SHAPE_DEFINITION_REPRESENTATION ( #194, #17 ) ;
#223 = DIRECTION ( 'NONE',  ( 4.275831445896958607E-31, 1.000000000000000000, 1.224646799147352961E-16 ) ) ;
#224 = DIRECTION ( 'NONE',  ( 4.275831445896958607E-31, 1.000000000000000000, 1.224646799147353207E-16 ) ) ;
#225 = CARTESIAN_POINT ( 'NONE',  ( 4.888073874380386066E-14, 5.999039130647427147E-32, 13.99999999999999822 ) ) ;
#226 = DIRECTION ( 'NONE',  ( -3.491481338843133355E-15, 1.224646799147353207E-16, -1.000000000000000000 ) ) ;
#227 = CARTESIAN_POINT ( 'NONE',  ( -3.420665156717566185E-30, 1.199807826129486086E-31, -9.797174393178825657E-16 ) ) ;
#228 = VERTEX_POINT ( 'NONE', #115 ) ;
#229 = DIRECTION ( 'NONE',  ( -4.275831445896958607E-31, -1.000000000000000000, -1.224646799147353207E-16 ) ) ;
#230 = PERSON_AND_ORGANIZATION_ROLE ( 'creator' ) ;
#231 = CLOSED_SHELL ( 'NONE', ( #22, #211, #61 ) ) ;
#232 = APPROVAL_DATE_TIME ( #37, #189 ) ;
#233 = PERSON_AND_ORGANIZATION_ROLE ( 'design_owner' ) ;
#234 = CC_DESIGN_APPROVAL ( #7, ( #153 ) ) ;
#235 = AXIS2_PLACEMENT_3D ( 'NONE', #77, #122, #99 ) ;
#236 = PRODUCT_RELATED_PRODUCT_CATEGORY ( 'detail', '', ( #167 ) ) ;
#237 = CALENDAR_DATE ( 2024, 12, 7 ) ;
#238 = CC_DESIGN_PERSON_AND_ORGANIZATION_ASSIGNMENT ( #139, #230, ( #105 ) ) ;
#239 = EDGE_LOOP ( 'NONE', ( #25 ) ) ;
#240 = AXIS2_PLACEMENT_3D ( 'NONE', #58, #196, #76 ) ;
#241 = DIRECTION ( 'NONE',  ( 0.000000000000000000, 1.000000000000000000, 0.000000000000000000 ) ) ;
#242 = DIRECTION ( 'NONE',  ( 3.491481338843133355E-15, -1.224646799147353207E-16, 1.000000000000000000 ) ) ;
#243 = ORIENTED_EDGE ( 'NONE', *, *, #177, .T. ) ;
ENDSEC;
END-ISO-10303-21;
