ISO-10303-21;
HEADER;
FILE_DESCRIPTION (( 'STEP AP203' ),
    '1' );
FILE_NAME ('976419.step',
    '2024-07-12T09:23:20',
    ( '' ),
    ( '' ),
    'SwSTEP 2.0',
    'SolidWorks 2022',
    '' );
FILE_SCHEMA (( 'CONFIG_CONTROL_DESIGN' ));
ENDSEC;

DATA;
#1 = CC_DESIGN_SECURITY_CLASSIFICATION ( #150, ( #6 ) ) ;
#2 = UNCERTAINTY_MEASURE_WITH_UNIT (LENGTH_MEASURE( 1.000000000000000082E-05 ), #155, 'distance_accuracy_value', 'NONE');
#3 = APPROVAL ( #142, 'UNSPECIFIED' ) ;
#4 = COORDINATED_UNIVERSAL_TIME_OFFSET ( 1, 0, .AHEAD. ) ;
#5 = ORIENTED_EDGE ( 'NONE', *, *, #70, .T. ) ;
#6 = PRODUCT_DEFINITION_FORMATION_WITH_SPECIFIED_SOURCE ( 'ANY', '', #101, .NOT_KNOWN. ) ;
#7 = CALENDAR_DATE ( 2024, 12, 7 ) ;
#8 = ORIENTED_EDGE ( 'NONE', *, *, #226, .T. ) ;
#9 = DIRECTION ( 'NONE',  ( 0.000000000000000000, 1.000000000000000000, 0.000000000000000000 ) ) ;
#10 = APPROVAL ( #62, 'UNSPECIFIED' ) ;
#11 = EDGE_LOOP ( 'NONE', ( #121 ) ) ;
#12 = APPLICATION_CONTEXT ( 'configuration controlled 3d designs of mechanical parts and assemblies' ) ;
#13 = CARTESIAN_POINT ( 'NONE',  ( 0.000000000000000000, 0.000000000000000000, 0.000000000000000000 ) ) ;
#14 = DIRECTION ( 'NONE',  ( -3.491481338843133355E-15, 1.224646799147353207E-16, -1.000000000000000000 ) ) ;
#15 = AXIS2_PLACEMENT_3D ( 'NONE', #109, #14, #87 ) ;
#16 = AXIS2_PLACEMENT_3D ( 'NONE', #220, #185, #33 ) ;
#17 = VERTEX_POINT ( 'NONE', #168 ) ;
#18 = CARTESIAN_POINT ( 'NONE',  ( 0.000000000000000000, 0.000000000000000000, 0.000000000000000000 ) ) ;
#19 = CYLINDRICAL_SURFACE ( 'NONE', #77, 6.999999999999999112 ) ;
#20 = CARTESIAN_POINT ( 'NONE',  ( 4.189777606611760026E-14, 6.499999999999993783, 12.00000000000000000 ) ) ;
#21 = DESIGN_CONTEXT ( 'detailed design', #12, 'design' ) ;
#22 = PRODUCT_RELATED_PRODUCT_CATEGORY ( 'detail', '', ( #101 ) ) ;
#23 = DATE_AND_TIME ( #114, #188 ) ;
#24 = PERSON ( 'UNSPECIFIED', 'UNSPECIFIED', 'UNSPECIFIED', ('UNSPECIFIED'), ('UNSPECIFIED'), ('UNSPECIFIED') ) ;
#25 = CONICAL_SURFACE ( 'NONE', #203, 6.500000000000005329, 0.7853981633974473908 ) ;
#26 = EDGE_CURVE ( 'NONE', #110, #110, #238, .T. ) ;
#27 = PRODUCT_DEFINITION ( 'UNKNOWN', '', #6, #21 ) ;
#28 = EDGE_LOOP ( 'NONE', ( #197 ) ) ;
#29 = DIRECTION ( 'NONE',  ( 4.275831445896958607E-31, 1.000000000000000000, 1.224646799147353207E-16 ) ) ;
#30 = DIRECTION ( 'NONE',  ( -3.491481338843133355E-15, 1.224646799147353207E-16, -1.000000000000000000 ) ) ;
#31 = CONICAL_SURFACE ( 'NONE', #184, 6.500000000000000000, 0.7853981633974422838 ) ;
#32 = FACE_OUTER_BOUND ( 'NONE', #107, .T. ) ;
#33 = DIRECTION ( 'NONE',  ( 4.275831445896958607E-31, 1.000000000000000000, 1.224646799147353207E-16 ) ) ;
#34 = AXIS2_PLACEMENT_3D ( 'NONE', #239, #84, #216 ) ;
#35 = LOCAL_TIME ( 11, 23, 20.00000000000000000, #78 ) ;
#36 = MANIFOLD_SOLID_BREP ( 'Corps-Déplacer/Copier1[1]', #144 ) ;
#37 = MECHANICAL_CONTEXT ( 'NONE', #86, 'mechanical' ) ;
#38 = APPROVAL_PERSON_ORGANIZATION ( #60, #3, #41 ) ;
#39 = COORDINATED_UNIVERSAL_TIME_OFFSET ( 1, 0, .AHEAD. ) ;
#40 = EDGE_LOOP ( 'NONE', ( #178 ) ) ;
#41 = APPROVAL_ROLE ( '' ) ;
#42 = EDGE_LOOP ( 'NONE', ( #180 ) ) ;
#43 = APPROVAL_DATE_TIME ( #161, #3 ) ;
#44 = ORIENTED_EDGE ( 'NONE', *, *, #26, .T. ) ;
#45 = EDGE_CURVE ( 'NONE', #17, #17, #175, .T. ) ;
#46 = PERSON_AND_ORGANIZATION ( #24, #55 ) ;
#47 =( GEOMETRIC_REPRESENTATION_CONTEXT ( 3 ) GLOBAL_UNCERTAINTY_ASSIGNED_CONTEXT ( ( #2 ) ) GLOBAL_UNIT_ASSIGNED_CONTEXT ( ( #155, #227, #99 ) ) REPRESENTATION_CONTEXT ( 'NONE', 'WORKASPACE' ) );
#48 = FACE_OUTER_BOUND ( 'NONE', #28, .T. ) ;
#49 = PLANE ( 'NONE',  #165 ) ;
#50 = FACE_OUTER_BOUND ( 'NONE', #213, .T. ) ;
#51 = CARTESIAN_POINT ( 'NONE',  ( 4.364351673553916568E-13, 4.874219293651018614E-32, 125.0000000000000000 ) ) ;
#52 = CC_DESIGN_PERSON_AND_ORGANIZATION_ASSIGNMENT ( #206, #191, ( #27 ) ) ;
#53 = FACE_OUTER_BOUND ( 'NONE', #42, .T. ) ;
#54 = VERTEX_POINT ( 'NONE', #138 ) ;
#55 = ORGANIZATION ( 'UNSPECIFIED', 'UNSPECIFIED', '' ) ;
#56 = VERTEX_POINT ( 'NONE', #73 ) ;
#57 = AXIS2_PLACEMENT_3D ( 'NONE', #81, #123, #104 ) ;
#58 = DIRECTION ( 'NONE',  ( 0.000000000000000000, 0.000000000000000000, 1.000000000000000000 ) ) ;
#59 = PERSON_AND_ORGANIZATION ( #24, #55 ) ;
#60 = PERSON_AND_ORGANIZATION ( #24, #55 ) ;
#61 = ORIENTED_EDGE ( 'NONE', *, *, #85, .F. ) ;
#62 = APPROVAL_STATUS ( 'not_yet_approved' ) ;
#63 = DIRECTION ( 'NONE',  ( -3.491481338843133355E-15, 1.224646799147353207E-16, -1.000000000000000000 ) ) ;
#64 = DIRECTION ( 'NONE',  ( -4.275831445896958607E-31, -1.000000000000000000, -1.224646799147353207E-16 ) ) ;
#65 = LOCAL_TIME ( 11, 23, 20.00000000000000000, #39 ) ;
#66 = CLOSED_SHELL ( 'NONE', ( #118, #75, #186 ) ) ;
#67 = FACE_OUTER_BOUND ( 'NONE', #163, .T. ) ;
#68 = DIRECTION ( 'NONE',  ( 0.000000000000000000, 1.000000000000000000, 0.000000000000000000 ) ) ;
#69 = DIRECTION ( 'NONE',  ( 3.491481338843133355E-15, -1.224646799147353207E-16, 1.000000000000000000 ) ) ;
#70 = EDGE_CURVE ( 'NONE', #158, #158, #136, .T. ) ;
#71 = CARTESIAN_POINT ( 'NONE',  ( 4.364351673553916568E-13, -1.530808498934191561E-14, 125.0000000000000000 ) ) ;
#72 = PERSON_AND_ORGANIZATION ( #24, #55 ) ;
#73 = CARTESIAN_POINT ( 'NONE',  ( 2.636068410826565746E-13, 6.999999999999984901, 75.50000000000000000 ) ) ;
#74 = VERTEX_POINT ( 'NONE', #117 ) ;
#75 = ADVANCED_FACE ( 'NONE', ( #50, #32 ), #182, .T. ) ;
#76 = CC_DESIGN_PERSON_AND_ORGANIZATION_ASSIGNMENT ( #46, #231, ( #6 ) ) ;
#77 = AXIS2_PLACEMENT_3D ( 'NONE', #13, #130, #29 ) ;
#78 = COORDINATED_UNIVERSAL_TIME_OFFSET ( 1, 0, .AHEAD. ) ;
#79 = EDGE_LOOP ( 'NONE', ( #61 ) ) ;
#80 = PERSON_AND_ORGANIZATION ( #24, #55 ) ;
#81 = CARTESIAN_POINT ( 'NONE',  ( 4.346894266859700964E-13, -1.524685264938454803E-14, 124.5000000000000000 ) ) ;
#82 = CARTESIAN_POINT ( 'NONE',  ( 2.618611004132350143E-13, -9.184850993605148733E-15, 75.00000000000000000 ) ) ;
#83 = ORIENTED_EDGE ( 'NONE', *, *, #85, .T. ) ;
#84 = DIRECTION ( 'NONE',  ( -3.491481338843133355E-15, 1.224646799147353207E-16, -1.000000000000000000 ) ) ;
#85 = EDGE_CURVE ( 'NONE', #54, #54, #111, .T. ) ;
#86 = APPLICATION_CONTEXT ( 'configuration controlled 3d designs of mechanical parts and assemblies' ) ;
#87 = DIRECTION ( 'NONE',  ( 4.275831445896958607E-31, 1.000000000000000000, 1.224646799147353207E-16 ) ) ;
#88 = APPROVAL_PERSON_ORGANIZATION ( #72, #147, #137 ) ;
#89 = AXIS2_PLACEMENT_3D ( 'NONE', #235, #106, #9 ) ;
#90 = DIRECTION ( 'NONE',  ( 4.275831445896958607E-31, 1.000000000000000000, 1.224646799147353207E-16 ) ) ;
#91 = ADVANCED_FACE ( 'NONE', ( #112 ), #149, .F. ) ;
#92 = FACE_BOUND ( 'NONE', #211, .T. ) ;
#93 = FACE_BOUND ( 'NONE', #40, .T. ) ;
#94 = VERTEX_POINT ( 'NONE', #157 ) ;
#95 = EDGE_CURVE ( 'NONE', #56, #56, #124, .T. ) ;
#96 = APPROVAL_DATE_TIME ( #119, #147 ) ;
#97 = ADVANCED_FACE ( 'NONE', ( #53, #93 ), #31, .T. ) ;
#98 = CC_DESIGN_DATE_AND_TIME_ASSIGNMENT ( #23, #173, ( #27 ) ) ;
#99 =( NAMED_UNIT ( * ) SI_UNIT ( $, .STERADIAN. ) SOLID_ANGLE_UNIT ( ) );
#100 = CC_DESIGN_APPROVAL ( #10, ( #6 ) ) ;
#101 = PRODUCT ( '976419', '976419', '', ( #37 ) ) ;
#102 = AXIS2_PLACEMENT_3D ( 'NONE', #241, #69, #151 ) ;
#103 = DATE_AND_TIME ( #177, #232 ) ;
#104 = DIRECTION ( 'NONE',  ( 0.000000000000000000, 1.000000000000000000, 0.000000000000000000 ) ) ;
#105 = PERSON_AND_ORGANIZATION_ROLE ( 'design_supplier' ) ;
#106 = DIRECTION ( 'NONE',  ( -3.491481338843133355E-15, 1.224646799147353207E-16, -1.000000000000000000 ) ) ;
#107 = EDGE_LOOP ( 'NONE', ( #234 ) ) ;
#108 = DIRECTION ( 'NONE',  ( 3.491481338843133355E-15, -1.224646799147353207E-16, 1.000000000000000000 ) ) ;
#109 = CARTESIAN_POINT ( 'NONE',  ( -2.993082012127871200E-30, 1.049831847863300325E-31, -8.572527594031473190E-16 ) ) ;
#110 = VERTEX_POINT ( 'NONE', #183 ) ;
#111 = CIRCLE ( 'NONE', #194, 6.500000000000005329 ) ;
#112 = FACE_OUTER_BOUND ( 'NONE', #160, .T. ) ;
#113 = DIRECTION ( 'NONE',  ( 0.000000000000000000, -1.000000000000000000, 0.000000000000000000 ) ) ;
#114 = CALENDAR_DATE ( 2024, 12, 7 ) ;
#115 = APPLICATION_PROTOCOL_DEFINITION ( 'international standard', 'config_control_design', 1994, #86 ) ;
#116 = CC_DESIGN_APPROVAL ( #3, ( #150 ) ) ;
#117 = CARTESIAN_POINT ( 'NONE',  ( 4.189777606611760026E-14, 6.999999999999998224, 12.00000000000000000 ) ) ;
#118 = ADVANCED_FACE ( 'NONE', ( #153 ), #132, .T. ) ;
#119 = DATE_AND_TIME ( #156, #193 ) ;
#120 = DATE_TIME_ROLE ( 'classification_date' ) ;
#121 = ORIENTED_EDGE ( 'NONE', *, *, #26, .F. ) ;
#122 = CIRCLE ( 'NONE', #15, 7.000000000000000000 ) ;
#123 = DIRECTION ( 'NONE',  ( -3.491481338843133355E-15, 1.224646799147353207E-16, -1.000000000000000000 ) ) ;
#124 = CIRCLE ( 'NONE', #34, 6.999999999999993783 ) ;
#125 = SHAPE_DEFINITION_REPRESENTATION ( #230, #209 ) ;
#126 = ORIENTED_EDGE ( 'NONE', *, *, #205, .T. ) ;
#127 = MANIFOLD_SOLID_BREP ( 'Corps-Déplacer/Copier1[2]', #66 ) ;
#128 = ADVANCED_FACE ( 'NONE', ( #67, #218 ), #164, .T. ) ;
#129 = CC_DESIGN_DATE_AND_TIME_ASSIGNMENT ( #103, #120, ( #150 ) ) ;
#130 = DIRECTION ( 'NONE',  ( -3.491481338843133355E-15, 1.224646799147353207E-16, -1.000000000000000000 ) ) ;
#131 = DIRECTION ( 'NONE',  ( -3.491481338843133355E-15, 1.224646799147353207E-16, -1.000000000000000000 ) ) ;
#132 = PLANE ( 'NONE',  #16 ) ;
#133 = CARTESIAN_POINT ( 'NONE',  ( 4.189777606611760026E-14, 5.249159239316498343E-32, 12.00000000000000000 ) ) ;
#134 = CARTESIAN_POINT ( 'NONE',  ( 0.000000000000000000, 0.000000000000000000, 0.000000000000000000 ) ) ;
#135 = AXIS2_PLACEMENT_3D ( 'NONE', #133, #108, #64 ) ;
#136 = CIRCLE ( 'NONE', #89, 6.499999999999995559 ) ;
#137 = APPROVAL_ROLE ( '' ) ;
#138 = CARTESIAN_POINT ( 'NONE',  ( 4.364351673553916568E-13, 6.499999999999990230, 125.0000000000000000 ) ) ;
#139 = CARTESIAN_POINT ( 'NONE',  ( 0.000000000000000000, 0.000000000000000000, 0.000000000000000000 ) ) ;
#140 = EDGE_LOOP ( 'NONE', ( #8 ) ) ;
#141 = ORIENTED_EDGE ( 'NONE', *, *, #95, .F. ) ;
#142 = APPROVAL_STATUS ( 'not_yet_approved' ) ;
#143 = EDGE_LOOP ( 'NONE', ( #44 ) ) ;
#144 = CLOSED_SHELL ( 'NONE', ( #91, #128, #97, #224, #146, #162 ) ) ;
#145 = EDGE_LOOP ( 'NONE', ( #141 ) ) ;
#146 = ADVANCED_FACE ( 'NONE', ( #200, #92 ), #25, .T. ) ;
#147 = APPROVAL ( #190, 'UNSPECIFIED' ) ;
#148 = ORIENTED_EDGE ( 'NONE', *, *, #70, .F. ) ;
#149 = PLANE ( 'NONE',  #102 ) ;
#150 = SECURITY_CLASSIFICATION ( '', '', #210 ) ;
#151 = DIRECTION ( 'NONE',  ( -4.275831445896958607E-31, -1.000000000000000000, -1.224646799147353207E-16 ) ) ;
#152 = CARTESIAN_POINT ( 'NONE',  ( 4.364351673553916568E-13, -1.530808498934191561E-14, 125.0000000000000000 ) ) ;
#153 = FACE_OUTER_BOUND ( 'NONE', #140, .T. ) ;
#154 = DIRECTION ( 'NONE',  ( 0.000000000000000000, 1.000000000000000000, 0.000000000000000000 ) ) ;
#155 =( LENGTH_UNIT ( ) NAMED_UNIT ( * ) SI_UNIT ( .MILLI., .METRE. ) );
#156 = CALENDAR_DATE ( 2024, 12, 7 ) ;
#157 = CARTESIAN_POINT ( 'NONE',  ( 0.000000000000000000, 7.000000000000000000, 0.000000000000000000 ) ) ;
#158 = VERTEX_POINT ( 'NONE', #20 ) ;
#159 = CIRCLE ( 'NONE', #223, 7.000000000000000000 ) ;
#160 = EDGE_LOOP ( 'NONE', ( #5 ) ) ;
#161 = DATE_AND_TIME ( #176, #35 ) ;
#162 = ADVANCED_FACE ( 'NONE', ( #236 ), #49, .F. ) ;
#163 = EDGE_LOOP ( 'NONE', ( #229 ) ) ;
#164 = CYLINDRICAL_SURFACE ( 'NONE', #212, 6.499999999999997335 ) ;
#165 = AXIS2_PLACEMENT_3D ( 'NONE', #51, #30, #90 ) ;
#166 = DIRECTION ( 'NONE',  ( -3.491481338843133355E-15, 1.224646799147353207E-16, -1.000000000000000000 ) ) ;
#167 = AXIS2_PLACEMENT_3D ( 'NONE', #18, #131, #242 ) ;
#168 = CARTESIAN_POINT ( 'NONE',  ( 2.618611004132350143E-13, 6.499999999999990230, 75.00000000000000000 ) ) ;
#169 = DIRECTION ( 'NONE',  ( -3.491481338843133355E-15, 1.224646799147353207E-16, -1.000000000000000000 ) ) ;
#170 = DIRECTION ( 'NONE',  ( 4.275831445896958607E-31, 1.000000000000000000, 1.224646799147353207E-16 ) ) ;
#171 = CC_DESIGN_PERSON_AND_ORGANIZATION_ASSIGNMENT ( #59, #189, ( #101 ) ) ;
#172 = DIRECTION ( 'NONE',  ( 1.000000000000000000, 0.000000000000000000, 0.000000000000000000 ) ) ;
#173 = DATE_TIME_ROLE ( 'creation_date' ) ;
#174 = APPROVAL_PERSON_ORGANIZATION ( #243, #10, #195 ) ;
#175 = CIRCLE ( 'NONE', #204, 6.500000000000000000 ) ;
#176 = CALENDAR_DATE ( 2024, 12, 7 ) ;
#177 = CALENDAR_DATE ( 2024, 12, 7 ) ;
#178 = ORIENTED_EDGE ( 'NONE', *, *, #45, .F. ) ;
#179 = APPROVAL_DATE_TIME ( #192, #10 ) ;
#180 = ORIENTED_EDGE ( 'NONE', *, *, #95, .T. ) ;
#181 = DIRECTION ( 'NONE',  ( -3.491481338843133355E-15, 1.224646799147353207E-16, -1.000000000000000000 ) ) ;
#182 = CYLINDRICAL_SURFACE ( 'NONE', #167, 7.000000000000000000 ) ;
#183 = CARTESIAN_POINT ( 'NONE',  ( 4.346894266859700964E-13, 6.999999999999989342, 124.5000000000000000 ) ) ;
#184 = AXIS2_PLACEMENT_3D ( 'NONE', #240, #199, #113 ) ;
#185 = DIRECTION ( 'NONE',  ( -3.491481338843133355E-15, 1.224646799147353207E-16, -1.000000000000000000 ) ) ;
#186 = ADVANCED_FACE ( 'NONE', ( #48 ), #221, .T. ) ;
#187 = FACE_OUTER_BOUND ( 'NONE', #143, .T. ) ;
#188 = LOCAL_TIME ( 11, 23, 20.00000000000000000, #4 ) ;
#189 = PERSON_AND_ORGANIZATION_ROLE ( 'design_owner' ) ;
#190 = APPROVAL_STATUS ( 'not_yet_approved' ) ;
#191 = PERSON_AND_ORGANIZATION_ROLE ( 'creator' ) ;
#192 = DATE_AND_TIME ( #7, #65 ) ;
#193 = LOCAL_TIME ( 11, 23, 20.00000000000000000, #225 ) ;
#194 = AXIS2_PLACEMENT_3D ( 'NONE', #152, #166, #198 ) ;
#195 = APPROVAL_ROLE ( '' ) ;
#196 = DIRECTION ( 'NONE',  ( 0.000000000000000000, 1.000000000000000000, 0.000000000000000000 ) ) ;
#197 = ORIENTED_EDGE ( 'NONE', *, *, #205, .F. ) ;
#198 = DIRECTION ( 'NONE',  ( 0.000000000000000000, 1.000000000000000000, 0.000000000000000000 ) ) ;
#199 = DIRECTION ( 'NONE',  ( 3.491481338843133355E-15, -1.224646799147353207E-16, 1.000000000000000000 ) ) ;
#200 = FACE_OUTER_BOUND ( 'NONE', #11, .T. ) ;
#201 = FACE_OUTER_BOUND ( 'NONE', #145, .T. ) ;
#202 = CARTESIAN_POINT ( 'NONE',  ( 4.189777606611760026E-14, -1.469576158976823947E-15, 12.00000000000000000 ) ) ;
#203 = AXIS2_PLACEMENT_3D ( 'NONE', #71, #169, #154 ) ;
#204 = AXIS2_PLACEMENT_3D ( 'NONE', #82, #63, #196 ) ;
#205 = EDGE_CURVE ( 'NONE', #74, #74, #159, .T. ) ;
#206 = PERSON_AND_ORGANIZATION ( #24, #55 ) ;
#207 = CC_DESIGN_PERSON_AND_ORGANIZATION_ASSIGNMENT ( #80, #228, ( #150 ) ) ;
#208 = PERSON_AND_ORGANIZATION ( #24, #55 ) ;
#209 = ADVANCED_BREP_SHAPE_REPRESENTATION ( '976419', ( #36, #127, #215 ), #47 ) ;
#210 = SECURITY_CLASSIFICATION_LEVEL ( 'unclassified' ) ;
#211 = EDGE_LOOP ( 'NONE', ( #83 ) ) ;
#212 = AXIS2_PLACEMENT_3D ( 'NONE', #134, #217, #170 ) ;
#213 = EDGE_LOOP ( 'NONE', ( #126 ) ) ;
#214 = EDGE_LOOP ( 'NONE', ( #148 ) ) ;
#215 = AXIS2_PLACEMENT_3D ( 'NONE', #139, #58, #172 ) ;
#216 = DIRECTION ( 'NONE',  ( 0.000000000000000000, 1.000000000000000000, 0.000000000000000000 ) ) ;
#217 = DIRECTION ( 'NONE',  ( -3.491481338843133355E-15, 1.224646799147353207E-16, -1.000000000000000000 ) ) ;
#218 = FACE_OUTER_BOUND ( 'NONE', #214, .T. ) ;
#219 = CC_DESIGN_PERSON_AND_ORGANIZATION_ASSIGNMENT ( #208, #105, ( #6 ) ) ;
#220 = CARTESIAN_POINT ( 'NONE',  ( -1.496541006063935600E-30, 5.249159239316501627E-32, -4.286263797015736595E-16 ) ) ;
#221 = PLANE ( 'NONE',  #135 ) ;
#222 = APPLICATION_PROTOCOL_DEFINITION ( 'international standard', 'config_control_design', 1994, #12 ) ;
#223 = AXIS2_PLACEMENT_3D ( 'NONE', #202, #181, #68 ) ;
#224 = ADVANCED_FACE ( 'NONE', ( #201, #187 ), #19, .T. ) ;
#225 = COORDINATED_UNIVERSAL_TIME_OFFSET ( 1, 0, .AHEAD. ) ;
#226 = EDGE_CURVE ( 'NONE', #94, #94, #122, .T. ) ;
#227 =( NAMED_UNIT ( * ) PLANE_ANGLE_UNIT ( ) SI_UNIT ( $, .RADIAN. ) );
#228 = PERSON_AND_ORGANIZATION_ROLE ( 'classification_officer' ) ;
#229 = ORIENTED_EDGE ( 'NONE', *, *, #45, .T. ) ;
#230 = PRODUCT_DEFINITION_SHAPE ( 'NONE', 'NONE',  #27 ) ;
#231 = PERSON_AND_ORGANIZATION_ROLE ( 'creator' ) ;
#232 = LOCAL_TIME ( 11, 23, 20.00000000000000000, #233 ) ;
#233 = COORDINATED_UNIVERSAL_TIME_OFFSET ( 1, 0, .AHEAD. ) ;
#234 = ORIENTED_EDGE ( 'NONE', *, *, #226, .F. ) ;
#235 = CARTESIAN_POINT ( 'NONE',  ( 4.189777606611760026E-14, -1.469576158976823947E-15, 12.00000000000000000 ) ) ;
#236 = FACE_OUTER_BOUND ( 'NONE', #79, .T. ) ;
#237 = CC_DESIGN_APPROVAL ( #147, ( #27 ) ) ;
#238 = CIRCLE ( 'NONE', #57, 7.000000000000005329 ) ;
#239 = CARTESIAN_POINT ( 'NONE',  ( 2.636068410826565746E-13, -9.246083333562516307E-15, 75.50000000000000000 ) ) ;
#240 = CARTESIAN_POINT ( 'NONE',  ( 2.618611004132350143E-13, -9.184850993605148733E-15, 75.00000000000000000 ) ) ;
#241 = CARTESIAN_POINT ( 'NONE',  ( 4.189777606611760026E-14, 4.874219293651031204E-32, 12.00000000000000000 ) ) ;
#242 = DIRECTION ( 'NONE',  ( 4.275831445896958607E-31, 1.000000000000000000, 1.224646799147353207E-16 ) ) ;
#243 = PERSON_AND_ORGANIZATION ( #24, #55 ) ;
ENDSEC;
END-ISO-10303-21;
