ISO-10303-21;
HEADER;
FILE_DESCRIPTION (( 'STEP AP203' ),
    '1' );
FILE_NAME ('976418.step',
    '2024-07-12T09:23:20',
    ( '' ),
    ( '' ),
    'SwSTEP 2.0',
    'SolidWorks 2022',
    '' );
FILE_SCHEMA (( 'CONFIG_CONTROL_DESIGN' ));
ENDSEC;

DATA;
#1 = APPROVAL_ROLE ( '' ) ;
#2 = APPROVAL_DATE_TIME ( #124, #75 ) ;
#3 = AXIS2_PLACEMENT_3D ( 'NONE', #90, #107, #237 ) ;
#4 = ADVANCED_FACE ( 'NONE', ( #238 ), #88, .F. ) ;
#5 = DIRECTION ( 'NONE',  ( -3.491481338843133355E-15, 1.224646799147353207E-16, -1.000000000000000000 ) ) ;
#6 = EDGE_LOOP ( 'NONE', ( #21 ) ) ;
#7 =( NAMED_UNIT ( * ) SI_UNIT ( $, .STERADIAN. ) SOLID_ANGLE_UNIT ( ) );
#8 = CARTESIAN_POINT ( 'NONE',  ( 4.189777606611760026E-14, -1.469576158976823947E-15, 12.00000000000000000 ) ) ;
#9 = AXIS2_PLACEMENT_3D ( 'NONE', #211, #179, #61 ) ;
#10 = DIRECTION ( 'NONE',  ( 1.000000000000000000, 0.000000000000000000, 0.000000000000000000 ) ) ;
#11 = DIRECTION ( 'NONE',  ( -3.491481338843133355E-15, 1.224646799147353207E-16, -1.000000000000000000 ) ) ;
#12 = ORIENTED_EDGE ( 'NONE', *, *, #175, .F. ) ;
#13 = PLANE ( 'NONE',  #223 ) ;
#14 = CC_DESIGN_PERSON_AND_ORGANIZATION_ASSIGNMENT ( #192, #141, ( #155 ) ) ;
#15 = CC_DESIGN_PERSON_AND_ORGANIZATION_ASSIGNMENT ( #218, #166, ( #155 ) ) ;
#16 = CARTESIAN_POINT ( 'NONE',  ( 4.189777606611760026E-14, 4.874219293651033394E-32, 12.00000000000000000 ) ) ;
#17 = AXIS2_PLACEMENT_3D ( 'NONE', #16, #18, #105 ) ;
#18 = DIRECTION ( 'NONE',  ( 3.491481338843133355E-15, -1.224646799147353207E-16, 1.000000000000000000 ) ) ;
#19 = ADVANCED_FACE ( 'NONE', ( #92, #220 ), #225, .T. ) ;
#20 = FACE_BOUND ( 'NONE', #200, .T. ) ;
#21 = ORIENTED_EDGE ( 'NONE', *, *, #128, .F. ) ;
#22 = EDGE_LOOP ( 'NONE', ( #29 ) ) ;
#23 = APPROVAL_PERSON_ORGANIZATION ( #140, #75, #62 ) ;
#24 = AXIS2_PLACEMENT_3D ( 'NONE', #8, #99, #171 ) ;
#25 = DIRECTION ( 'NONE',  ( 0.000000000000000000, -1.000000000000000000, 0.000000000000000000 ) ) ;
#26 = EDGE_CURVE ( 'NONE', #139, #139, #201, .T. ) ;
#27 = AXIS2_PLACEMENT_3D ( 'NONE', #235, #47, #48 ) ;
#28 = CC_DESIGN_APPROVAL ( #42, ( #109 ) ) ;
#29 = ORIENTED_EDGE ( 'NONE', *, *, #128, .T. ) ;
#30 = DIRECTION ( 'NONE',  ( 0.000000000000000000, 0.000000000000000000, 1.000000000000000000 ) ) ;
#31 =( NAMED_UNIT ( * ) PLANE_ANGLE_UNIT ( ) SI_UNIT ( $, .RADIAN. ) );
#32 = VERTEX_POINT ( 'NONE', #104 ) ;
#33 = APPROVAL_STATUS ( 'not_yet_approved' ) ;
#34 = ORIENTED_EDGE ( 'NONE', *, *, #145, .F. ) ;
#35 = APPLICATION_CONTEXT ( 'configuration controlled 3d designs of mechanical parts and assemblies' ) ;
#36 = APPROVAL ( #193, 'UNSPECIFIED' ) ;
#37 = ORIENTED_EDGE ( 'NONE', *, *, #79, .F. ) ;
#38 = DIRECTION ( 'NONE',  ( -3.491481338843133355E-15, 1.224646799147353207E-16, -1.000000000000000000 ) ) ;
#39 = MANIFOLD_SOLID_BREP ( 'Corps-Déplacer/Copier1[2]', #66 ) ;
#40 = COORDINATED_UNIVERSAL_TIME_OFFSET ( 1, 0, .AHEAD. ) ;
#41 = FACE_OUTER_BOUND ( 'NONE', #154, .T. ) ;
#42 = APPROVAL ( #96, 'UNSPECIFIED' ) ;
#43 = VERTEX_POINT ( 'NONE', #52 ) ;
#44 = ORIENTED_EDGE ( 'NONE', *, *, #174, .F. ) ;
#45 = CARTESIAN_POINT ( 'NONE',  ( 0.000000000000000000, 0.000000000000000000, 0.000000000000000000 ) ) ;
#46 = CIRCLE ( 'NONE', #203, 6.499999999999998224 ) ;
#47 = DIRECTION ( 'NONE',  ( -3.491481338843133355E-15, 1.224646799147353207E-16, -1.000000000000000000 ) ) ;
#48 = DIRECTION ( 'NONE',  ( 0.000000000000000000, 1.000000000000000000, 0.000000000000000000 ) ) ;
#49 = CC_DESIGN_APPROVAL ( #75, ( #186 ) ) ;
#50 = ADVANCED_FACE ( 'NONE', ( #72, #234 ), #165, .T. ) ;
#51 = DATE_TIME_ROLE ( 'creation_date' ) ;
#52 = CARTESIAN_POINT ( 'NONE',  ( 4.189777606611760026E-14, 6.499999999999996447, 12.00000000000000000 ) ) ;
#53 = DIRECTION ( 'NONE',  ( 0.000000000000000000, 1.000000000000000000, 0.000000000000000000 ) ) ;
#54 = UNCERTAINTY_MEASURE_WITH_UNIT (LENGTH_MEASURE( 1.000000000000000082E-05 ), #133, 'distance_accuracy_value', 'NONE');
#55 = CIRCLE ( 'NONE', #170, 6.499999999999995559 ) ;
#56 = DIRECTION ( 'NONE',  ( -4.275831445896958607E-31, -1.000000000000000000, -1.224646799147353207E-16 ) ) ;
#57 = LOCAL_TIME ( 11, 23, 20.00000000000000000, #40 ) ;
#58 = DIRECTION ( 'NONE',  ( 0.000000000000000000, 1.000000000000000000, 0.000000000000000000 ) ) ;
#59 = AXIS2_PLACEMENT_3D ( 'NONE', #64, #103, #58 ) ;
#60 = COORDINATED_UNIVERSAL_TIME_OFFSET ( 1, 0, .AHEAD. ) ;
#61 = DIRECTION ( 'NONE',  ( 4.275831445896958607E-31, 1.000000000000000000, 1.224646799147353207E-16 ) ) ;
#62 = APPROVAL_ROLE ( '' ) ;
#63 = CALENDAR_DATE ( 2024, 12, 7 ) ;
#64 = CARTESIAN_POINT ( 'NONE',  ( 1.344220315454606279E-13, -4.714890176717309515E-15, 38.50000000000000000 ) ) ;
#65 = LOCAL_TIME ( 11, 23, 20.00000000000000000, #60 ) ;
#66 = CLOSED_SHELL ( 'NONE', ( #199, #101, #227 ) ) ;
#67 = CALENDAR_DATE ( 2024, 12, 7 ) ;
#68 = DIRECTION ( 'NONE',  ( 0.000000000000000000, 1.000000000000000000, 0.000000000000000000 ) ) ;
#69 = CC_DESIGN_DATE_AND_TIME_ASSIGNMENT ( #150, #51, ( #109 ) ) ;
#70 = CIRCLE ( 'NONE', #24, 7.000000000000000000 ) ;
#71 = CALENDAR_DATE ( 2024, 12, 7 ) ;
#72 = FACE_OUTER_BOUND ( 'NONE', #6, .T. ) ;
#73 = FACE_OUTER_BOUND ( 'NONE', #121, .T. ) ;
#74 = CARTESIAN_POINT ( 'NONE',  ( 1.326762908760390423E-13, -4.653657836759941941E-15, 38.00000000000000000 ) ) ;
#75 = APPROVAL ( #33, 'UNSPECIFIED' ) ;
#76 = FACE_OUTER_BOUND ( 'NONE', #86, .T. ) ;
#77 = PRODUCT ( '976418', '976418', '', ( #206 ) ) ;
#78 = COORDINATED_UNIVERSAL_TIME_OFFSET ( 1, 0, .AHEAD. ) ;
#79 = EDGE_CURVE ( 'NONE', #216, #216, #55, .T. ) ;
#80 = VERTEX_POINT ( 'NONE', #118 ) ;
#81 = DIRECTION ( 'NONE',  ( 3.491481338843133355E-15, -1.224646799147353207E-16, 1.000000000000000000 ) ) ;
#82 = ADVANCED_FACE ( 'NONE', ( #138, #176 ), #119, .T. ) ;
#83 = DIRECTION ( 'NONE',  ( 4.275831445896958607E-31, 1.000000000000000000, 1.224646799147353207E-16 ) ) ;
#84 = PERSON_AND_ORGANIZATION ( #113, #161 ) ;
#85 = DATE_AND_TIME ( #63, #240 ) ;
#86 = EDGE_LOOP ( 'NONE', ( #212 ) ) ;
#87 = AXIS2_PLACEMENT_3D ( 'NONE', #106, #188, #25 ) ;
#88 = PLANE ( 'NONE',  #3 ) ;
#89 = CLOSED_SHELL ( 'NONE', ( #117, #82, #159, #50, #19, #4 ) ) ;
#90 = CARTESIAN_POINT ( 'NONE',  ( 2.897929511239800811E-13, 4.874219293651018614E-32, 83.00000000000000000 ) ) ;
#91 = CALENDAR_DATE ( 2024, 12, 7 ) ;
#92 = FACE_OUTER_BOUND ( 'NONE', #146, .T. ) ;
#93 = CARTESIAN_POINT ( 'NONE',  ( 4.189777606611760026E-14, -1.469576158976823947E-15, 12.00000000000000000 ) ) ;
#94 = CARTESIAN_POINT ( 'NONE',  ( 0.000000000000000000, 0.000000000000000000, 0.000000000000000000 ) ) ;
#95 = ORIENTED_EDGE ( 'NONE', *, *, #175, .T. ) ;
#96 = APPROVAL_STATUS ( 'not_yet_approved' ) ;
#97 = EDGE_LOOP ( 'NONE', ( #202 ) ) ;
#98 =( GEOMETRIC_REPRESENTATION_CONTEXT ( 3 ) GLOBAL_UNCERTAINTY_ASSIGNED_CONTEXT ( ( #54 ) ) GLOBAL_UNIT_ASSIGNED_CONTEXT ( ( #133, #31, #7 ) ) REPRESENTATION_CONTEXT ( 'NONE', 'WORKASPACE' ) );
#99 = DIRECTION ( 'NONE',  ( -3.491481338843133355E-15, 1.224646799147353207E-16, -1.000000000000000000 ) ) ;
#100 = AXIS2_PLACEMENT_3D ( 'NONE', #45, #129, #110 ) ;
#101 = ADVANCED_FACE ( 'NONE', ( #214, #41 ), #125, .T. ) ;
#102 = CARTESIAN_POINT ( 'NONE',  ( 0.000000000000000000, 7.000000000000000000, 0.000000000000000000 ) ) ;
#103 = DIRECTION ( 'NONE',  ( -3.491481338843133355E-15, 1.224646799147353207E-16, -1.000000000000000000 ) ) ;
#104 = CARTESIAN_POINT ( 'NONE',  ( 4.189777606611760026E-14, 6.999999999999998224, 12.00000000000000000 ) ) ;
#105 = DIRECTION ( 'NONE',  ( -4.275831445896958607E-31, -1.000000000000000000, -1.224646799147353207E-16 ) ) ;
#106 = CARTESIAN_POINT ( 'NONE',  ( 1.326762908760390423E-13, -4.653657836759941941E-15, 38.00000000000000000 ) ) ;
#107 = DIRECTION ( 'NONE',  ( -3.491481338843133355E-15, 1.224646799147353207E-16, -1.000000000000000000 ) ) ;
#108 = AXIS2_PLACEMENT_3D ( 'NONE', #74, #239, #172 ) ;
#109 = PRODUCT_DEFINITION ( 'UNKNOWN', '', #155, #213 ) ;
#110 = DIRECTION ( 'NONE',  ( 4.275831445896959482E-31, 1.000000000000000000, 1.224646799147353207E-16 ) ) ;
#111 = ORIENTED_EDGE ( 'NONE', *, *, #174, .T. ) ;
#112 = CARTESIAN_POINT ( 'NONE',  ( 2.880472104545584198E-13, -1.010333609296566392E-14, 82.49999999999998579 ) ) ;
#113 = PERSON ( 'UNSPECIFIED', 'UNSPECIFIED', 'UNSPECIFIED', ('UNSPECIFIED'), ('UNSPECIFIED'), ('UNSPECIFIED') ) ;
#114 = PERSON_AND_ORGANIZATION_ROLE ( 'design_owner' ) ;
#115 = LOCAL_TIME ( 11, 23, 20.00000000000000000, #78 ) ;
#116 = APPLICATION_CONTEXT ( 'configuration controlled 3d designs of mechanical parts and assemblies' ) ;
#117 = ADVANCED_FACE ( 'NONE', ( #194 ), #228, .F. ) ;
#118 = CARTESIAN_POINT ( 'NONE',  ( 1.344220315454606279E-13, 6.999999999999989342, 38.50000000000000000 ) ) ;
#119 = CYLINDRICAL_SURFACE ( 'NONE', #243, 6.499999999999999112 ) ;
#120 = SHAPE_DEFINITION_REPRESENTATION ( #143, #185 ) ;
#121 = EDGE_LOOP ( 'NONE', ( #148 ) ) ;
#122 = DATE_TIME_ROLE ( 'classification_date' ) ;
#123 = CC_DESIGN_APPROVAL ( #36, ( #155 ) ) ;
#124 = DATE_AND_TIME ( #67, #65 ) ;
#125 = CYLINDRICAL_SURFACE ( 'NONE', #162, 7.000000000000000000 ) ;
#126 = APPROVAL_PERSON_ORGANIZATION ( #190, #42, #173 ) ;
#127 = CARTESIAN_POINT ( 'NONE',  ( 2.897929511239800811E-13, 6.499999999999984901, 83.00000000000000000 ) ) ;
#128 = EDGE_CURVE ( 'NONE', #80, #80, #142, .T. ) ;
#129 = DIRECTION ( 'NONE',  ( -3.491481338843133355E-15, 1.224646799147353207E-16, -1.000000000000000000 ) ) ;
#130 = CIRCLE ( 'NONE', #9, 7.000000000000000000 ) ;
#131 = EDGE_LOOP ( 'NONE', ( #37 ) ) ;
#132 = PERSON_AND_ORGANIZATION ( #113, #161 ) ;
#133 =( LENGTH_UNIT ( ) NAMED_UNIT ( * ) SI_UNIT ( .MILLI., .METRE. ) );
#134 = PERSON_AND_ORGANIZATION ( #113, #161 ) ;
#135 = CC_DESIGN_SECURITY_CLASSIFICATION ( #186, ( #155 ) ) ;
#136 = MANIFOLD_SOLID_BREP ( 'Corps-Déplacer/Copier1[1]', #89 ) ;
#137 = PERSON_AND_ORGANIZATION_ROLE ( 'creator' ) ;
#138 = FACE_OUTER_BOUND ( 'NONE', #229, .T. ) ;
#139 = VERTEX_POINT ( 'NONE', #209 ) ;
#140 = PERSON_AND_ORGANIZATION ( #113, #161 ) ;
#141 = PERSON_AND_ORGANIZATION_ROLE ( 'creator' ) ;
#142 = CIRCLE ( 'NONE', #59, 6.999999999999993783 ) ;
#143 = PRODUCT_DEFINITION_SHAPE ( 'NONE', 'NONE',  #109 ) ;
#144 = VERTEX_POINT ( 'NONE', #180 ) ;
#145 = EDGE_CURVE ( 'NONE', #197, #197, #130, .T. ) ;
#146 = EDGE_LOOP ( 'NONE', ( #221 ) ) ;
#147 = APPROVAL_PERSON_ORGANIZATION ( #132, #36, #1 ) ;
#148 = ORIENTED_EDGE ( 'NONE', *, *, #145, .T. ) ;
#149 = ORIENTED_EDGE ( 'NONE', *, *, #26, .T. ) ;
#150 = DATE_AND_TIME ( #71, #204 ) ;
#151 = DIRECTION ( 'NONE',  ( 0.000000000000000000, 1.000000000000000000, 0.000000000000000000 ) ) ;
#152 = CC_DESIGN_PERSON_AND_ORGANIZATION_ASSIGNMENT ( #134, #114, ( #77 ) ) ;
#153 = APPLICATION_PROTOCOL_DEFINITION ( 'international standard', 'config_control_design', 1994, #116 ) ;
#154 = EDGE_LOOP ( 'NONE', ( #34 ) ) ;
#155 = PRODUCT_DEFINITION_FORMATION_WITH_SPECIFIED_SOURCE ( 'ANY', '', #77, .NOT_KNOWN. ) ;
#156 = PLANE ( 'NONE',  #208 ) ;
#157 = DATE_AND_TIME ( #91, #115 ) ;
#158 = DIRECTION ( 'NONE',  ( 4.275831445896958607E-31, 1.000000000000000000, 1.224646799147353207E-16 ) ) ;
#159 = ADVANCED_FACE ( 'NONE', ( #236, #20 ), #191, .T. ) ;
#160 = EDGE_LOOP ( 'NONE', ( #164 ) ) ;
#161 = ORGANIZATION ( 'UNSPECIFIED', 'UNSPECIFIED', '' ) ;
#162 = AXIS2_PLACEMENT_3D ( 'NONE', #231, #232, #83 ) ;
#163 = CIRCLE ( 'NONE', #108, 6.499999999999999112 ) ;
#164 = ORIENTED_EDGE ( 'NONE', *, *, #169, .T. ) ;
#165 = CYLINDRICAL_SURFACE ( 'NONE', #100, 6.999999999999994671 ) ;
#166 = PERSON_AND_ORGANIZATION_ROLE ( 'design_supplier' ) ;
#167 = APPROVAL_DATE_TIME ( #157, #42 ) ;
#168 = DIRECTION ( 'NONE',  ( -3.491481338843133355E-15, 1.224646799147353207E-16, -1.000000000000000000 ) ) ;
#169 = EDGE_CURVE ( 'NONE', #32, #32, #70, .T. ) ;
#170 = AXIS2_PLACEMENT_3D ( 'NONE', #183, #5, #53 ) ;
#171 = DIRECTION ( 'NONE',  ( 0.000000000000000000, 1.000000000000000000, 0.000000000000000000 ) ) ;
#172 = DIRECTION ( 'NONE',  ( 0.000000000000000000, 1.000000000000000000, 0.000000000000000000 ) ) ;
#173 = APPROVAL_ROLE ( '' ) ;
#174 = EDGE_CURVE ( 'NONE', #144, #144, #163, .T. ) ;
#175 = EDGE_CURVE ( 'NONE', #43, #43, #46, .T. ) ;
#176 = FACE_OUTER_BOUND ( 'NONE', #196, .T. ) ;
#177 = CALENDAR_DATE ( 2024, 12, 7 ) ;
#178 = APPROVAL_DATE_TIME ( #85, #36 ) ;
#179 = DIRECTION ( 'NONE',  ( -3.491481338843133355E-15, 1.224646799147353207E-16, -1.000000000000000000 ) ) ;
#180 = CARTESIAN_POINT ( 'NONE',  ( 1.326762908760390423E-13, 6.499999999999994671, 38.00000000000000000 ) ) ;
#181 = SECURITY_CLASSIFICATION_LEVEL ( 'unclassified' ) ;
#182 = AXIS2_PLACEMENT_3D ( 'NONE', #112, #168, #68 ) ;
#183 = CARTESIAN_POINT ( 'NONE',  ( 2.897929511239800811E-13, -1.016456843292303150E-14, 83.00000000000000000 ) ) ;
#184 = CC_DESIGN_DATE_AND_TIME_ASSIGNMENT ( #198, #122, ( #186 ) ) ;
#185 = ADVANCED_BREP_SHAPE_REPRESENTATION ( '976418', ( #136, #39, #233 ), #98 ) ;
#186 = SECURITY_CLASSIFICATION ( '', '', #181 ) ;
#187 = EDGE_LOOP ( 'NONE', ( #95 ) ) ;
#188 = DIRECTION ( 'NONE',  ( 3.491481338843133355E-15, -1.224646799147353207E-16, 1.000000000000000000 ) ) ;
#189 = CC_DESIGN_PERSON_AND_ORGANIZATION_ASSIGNMENT ( #226, #137, ( #109 ) ) ;
#190 = PERSON_AND_ORGANIZATION ( #113, #161 ) ;
#191 = CONICAL_SURFACE ( 'NONE', #87, 6.499999999999999112, 0.7853981633974430610 ) ;
#192 = PERSON_AND_ORGANIZATION ( #113, #161 ) ;
#193 = APPROVAL_STATUS ( 'not_yet_approved' ) ;
#194 = FACE_OUTER_BOUND ( 'NONE', #187, .T. ) ;
#195 = CARTESIAN_POINT ( 'NONE',  ( 4.189777606611760026E-14, 5.249159239316498343E-32, 12.00000000000000000 ) ) ;
#196 = EDGE_LOOP ( 'NONE', ( #12 ) ) ;
#197 = VERTEX_POINT ( 'NONE', #102 ) ;
#198 = DATE_AND_TIME ( #177, #57 ) ;
#199 = ADVANCED_FACE ( 'NONE', ( #73 ), #13, .T. ) ;
#200 = EDGE_LOOP ( 'NONE', ( #44 ) ) ;
#201 = CIRCLE ( 'NONE', #182, 6.999999999999995559 ) ;
#202 = ORIENTED_EDGE ( 'NONE', *, *, #79, .T. ) ;
#203 = AXIS2_PLACEMENT_3D ( 'NONE', #93, #222, #151 ) ;
#204 = LOCAL_TIME ( 11, 23, 20.00000000000000000, #207 ) ;
#205 = PRODUCT_RELATED_PRODUCT_CATEGORY ( 'detail', '', ( #77 ) ) ;
#206 = MECHANICAL_CONTEXT ( 'NONE', #116, 'mechanical' ) ;
#207 = COORDINATED_UNIVERSAL_TIME_OFFSET ( 1, 0, .AHEAD. ) ;
#208 = AXIS2_PLACEMENT_3D ( 'NONE', #195, #81, #56 ) ;
#209 = CARTESIAN_POINT ( 'NONE',  ( 2.880472104545584198E-13, 6.999999999999985789, 82.49999999999998579 ) ) ;
#210 = COORDINATED_UNIVERSAL_TIME_OFFSET ( 1, 0, .AHEAD. ) ;
#211 = CARTESIAN_POINT ( 'NONE',  ( -2.993082012127871200E-30, 1.049831847863300325E-31, -8.572527594031473190E-16 ) ) ;
#212 = ORIENTED_EDGE ( 'NONE', *, *, #169, .F. ) ;
#213 = DESIGN_CONTEXT ( 'detailed design', #35, 'design' ) ;
#214 = FACE_OUTER_BOUND ( 'NONE', #160, .T. ) ;
#215 = CARTESIAN_POINT ( 'NONE',  ( 0.000000000000000000, 0.000000000000000000, 0.000000000000000000 ) ) ;
#216 = VERTEX_POINT ( 'NONE', #127 ) ;
#217 = CC_DESIGN_PERSON_AND_ORGANIZATION_ASSIGNMENT ( #84, #230, ( #186 ) ) ;
#218 = PERSON_AND_ORGANIZATION ( #113, #161 ) ;
#219 = EDGE_LOOP ( 'NONE', ( #149 ) ) ;
#220 = FACE_BOUND ( 'NONE', #97, .T. ) ;
#221 = ORIENTED_EDGE ( 'NONE', *, *, #26, .F. ) ;
#222 = DIRECTION ( 'NONE',  ( -3.491481338843133355E-15, 1.224646799147353207E-16, -1.000000000000000000 ) ) ;
#223 = AXIS2_PLACEMENT_3D ( 'NONE', #224, #11, #242 ) ;
#224 = CARTESIAN_POINT ( 'NONE',  ( -1.496541006063935600E-30, 5.249159239316501627E-32, -4.286263797015736595E-16 ) ) ;
#225 = CONICAL_SURFACE ( 'NONE', #27, 6.499999999999995559, 0.7853981633974344012 ) ;
#226 = PERSON_AND_ORGANIZATION ( #113, #161 ) ;
#227 = ADVANCED_FACE ( 'NONE', ( #76 ), #156, .T. ) ;
#228 = PLANE ( 'NONE',  #17 ) ;
#229 = EDGE_LOOP ( 'NONE', ( #111 ) ) ;
#230 = PERSON_AND_ORGANIZATION_ROLE ( 'classification_officer' ) ;
#231 = CARTESIAN_POINT ( 'NONE',  ( 0.000000000000000000, 0.000000000000000000, 0.000000000000000000 ) ) ;
#232 = DIRECTION ( 'NONE',  ( -3.491481338843133355E-15, 1.224646799147353207E-16, -1.000000000000000000 ) ) ;
#233 = AXIS2_PLACEMENT_3D ( 'NONE', #94, #30, #10 ) ;
#234 = FACE_OUTER_BOUND ( 'NONE', #219, .T. ) ;
#235 = CARTESIAN_POINT ( 'NONE',  ( 2.897929511239800811E-13, -1.016456843292303150E-14, 83.00000000000000000 ) ) ;
#236 = FACE_OUTER_BOUND ( 'NONE', #22, .T. ) ;
#237 = DIRECTION ( 'NONE',  ( 4.275831445896958607E-31, 1.000000000000000000, 1.224646799147353207E-16 ) ) ;
#238 = FACE_OUTER_BOUND ( 'NONE', #131, .T. ) ;
#239 = DIRECTION ( 'NONE',  ( -3.491481338843133355E-15, 1.224646799147353207E-16, -1.000000000000000000 ) ) ;
#240 = LOCAL_TIME ( 11, 23, 20.00000000000000000, #210 ) ;
#241 = APPLICATION_PROTOCOL_DEFINITION ( 'international standard', 'config_control_design', 1994, #35 ) ;
#242 = DIRECTION ( 'NONE',  ( 4.275831445896958607E-31, 1.000000000000000000, 1.224646799147353207E-16 ) ) ;
#243 = AXIS2_PLACEMENT_3D ( 'NONE', #215, #38, #158 ) ;
ENDSEC;
END-ISO-10303-21;
