ISO-10303-21;
HEADER;
FILE_DESCRIPTION (( 'STEP AP203' ),
    '1' );
FILE_NAME ('976417.step',
    '2024-07-12T09:23:19',
    ( '' ),
    ( '' ),
    'SwSTEP 2.0',
    'SolidWorks 2022',
    '' );
FILE_SCHEMA (( 'CONFIG_CONTROL_DESIGN' ));
ENDSEC;

DATA;
#1 = ADVANCED_FACE ( 'NONE', ( #36 ), #225, .F. ) ;
#2 = PERSON_AND_ORGANIZATION ( #64, #185 ) ;
#3 = AXIS2_PLACEMENT_3D ( 'NONE', #150, #190, #154 ) ;
#4 = AXIS2_PLACEMENT_3D ( 'NONE', #134, #173, #7 ) ;
#5 = EDGE_CURVE ( 'NONE', #14, #14, #18, .T. ) ;
#6 = EDGE_CURVE ( 'NONE', #235, #235, #152, .T. ) ;
#7 = DIRECTION ( 'NONE',  ( -4.275831445896958607E-31, -1.000000000000000000, -1.224646799147353207E-16 ) ) ;
#8 = AXIS2_PLACEMENT_3D ( 'NONE', #193, #9, #122 ) ;
#9 = DIRECTION ( 'NONE',  ( -3.491481338843133355E-15, 1.224646799147353207E-16, -1.000000000000000000 ) ) ;
#10 = CC_DESIGN_PERSON_AND_ORGANIZATION_ASSIGNMENT ( #145, #127, ( #226 ) ) ;
#11 = DIRECTION ( 'NONE',  ( 4.275831445896958607E-31, 1.000000000000000000, 1.224646799147353207E-16 ) ) ;
#12 = PRODUCT_DEFINITION_SHAPE ( 'NONE', 'NONE',  #192 ) ;
#13 = APPROVAL_DATE_TIME ( #126, #111 ) ;
#14 = VERTEX_POINT ( 'NONE', #74 ) ;
#15 = EDGE_LOOP ( 'NONE', ( #73 ) ) ;
#16 = VERTEX_POINT ( 'NONE', #164 ) ;
#17 = ORIENTED_EDGE ( 'NONE', *, *, #68, .T. ) ;
#18 = CIRCLE ( 'NONE', #3, 6.499999999999999112 ) ;
#19 = UNCERTAINTY_MEASURE_WITH_UNIT (LENGTH_MEASURE( 1.000000000000000082E-05 ), #117, 'distance_accuracy_value', 'NONE');
#20 = FACE_OUTER_BOUND ( 'NONE', #29, .T. ) ;
#21 = DIRECTION ( 'NONE',  ( -3.491481338843133355E-15, 1.224646799147353207E-16, -1.000000000000000000 ) ) ;
#22 = CC_DESIGN_PERSON_AND_ORGANIZATION_ASSIGNMENT ( #142, #237, ( #84 ) ) ;
#23 = FACE_OUTER_BOUND ( 'NONE', #91, .T. ) ;
#24 = DIRECTION ( 'NONE',  ( 0.000000000000000000, 1.000000000000000000, 0.000000000000000000 ) ) ;
#25 = DIRECTION ( 'NONE',  ( -3.491481338843133355E-15, 1.224646799147353207E-16, -1.000000000000000000 ) ) ;
#26 = CARTESIAN_POINT ( 'NONE',  ( 8.554129280165677352E-14, 6.999999999999989342, 24.50000000000000000 ) ) ;
#27 = DATE_TIME_ROLE ( 'classification_date' ) ;
#28 = CC_DESIGN_PERSON_AND_ORGANIZATION_ASSIGNMENT ( #163, #217, ( #84 ) ) ;
#29 = EDGE_LOOP ( 'NONE', ( #218 ) ) ;
#30 = ORIENTED_EDGE ( 'NONE', *, *, #97, .T. ) ;
#31 = COORDINATED_UNIVERSAL_TIME_OFFSET ( 1, 0, .AHEAD. ) ;
#32 = EDGE_LOOP ( 'NONE', ( #30 ) ) ;
#33 =( NAMED_UNIT ( * ) SI_UNIT ( $, .STERADIAN. ) SOLID_ANGLE_UNIT ( ) );
#34 = LOCAL_TIME ( 11, 23, 19.00000000000000000, #156 ) ;
#35 = DIRECTION ( 'NONE',  ( 1.000000000000000000, 0.000000000000000000, 0.000000000000000000 ) ) ;
#36 = FACE_OUTER_BOUND ( 'NONE', #32, .T. ) ;
#37 = APPLICATION_CONTEXT ( 'configuration controlled 3d designs of mechanical parts and assemblies' ) ;
#38 = DIRECTION ( 'NONE',  ( 3.491481338843133355E-15, -1.224646799147353207E-16, 1.000000000000000000 ) ) ;
#39 = DIRECTION ( 'NONE',  ( 4.275831445896958607E-31, 1.000000000000000000, 1.224646799147353207E-16 ) ) ;
#40 = CIRCLE ( 'NONE', #174, 6.499999999999995559 ) ;
#41 = DIRECTION ( 'NONE',  ( -3.491481338843133355E-15, 1.224646799147353207E-16, -1.000000000000000000 ) ) ;
#42 = APPLICATION_PROTOCOL_DEFINITION ( 'international standard', 'config_control_design', 1994, #196 ) ;
#43 = ORIENTED_EDGE ( 'NONE', *, *, #5, .F. ) ;
#44 = CARTESIAN_POINT ( 'NONE',  ( 2.897929511239800811E-13, -1.016456843292303150E-14, 83.00000000000000000 ) ) ;
#45 = AXIS2_PLACEMENT_3D ( 'NONE', #44, #69, #24 ) ;
#46 =( GEOMETRIC_REPRESENTATION_CONTEXT ( 3 ) GLOBAL_UNCERTAINTY_ASSIGNED_CONTEXT ( ( #19 ) ) GLOBAL_UNIT_ASSIGNED_CONTEXT ( ( #117, #189, #33 ) ) REPRESENTATION_CONTEXT ( 'NONE', 'WORKASPACE' ) );
#47 = FACE_OUTER_BOUND ( 'NONE', #15, .T. ) ;
#48 = CARTESIAN_POINT ( 'NONE',  ( 2.897929511239800811E-13, -1.016456843292303150E-14, 83.00000000000000000 ) ) ;
#49 = APPROVAL ( #199, 'UNSPECIFIED' ) ;
#50 = CALENDAR_DATE ( 2024, 12, 7 ) ;
#51 = ADVANCED_FACE ( 'NONE', ( #105 ), #85, .T. ) ;
#52 = PERSON_AND_ORGANIZATION ( #64, #185 ) ;
#53 = EDGE_CURVE ( 'NONE', #88, #88, #180, .T. ) ;
#54 = DIRECTION ( 'NONE',  ( 0.000000000000000000, 1.000000000000000000, 0.000000000000000000 ) ) ;
#55 = AXIS2_PLACEMENT_3D ( 'NONE', #233, #137, #136 ) ;
#56 = MANIFOLD_SOLID_BREP ( 'Corps-Déplacer/Copier1[2]', #63 ) ;
#57 = SHAPE_DEFINITION_REPRESENTATION ( #12, #141 ) ;
#58 = ORIENTED_EDGE ( 'NONE', *, *, #175, .T. ) ;
#59 = CARTESIAN_POINT ( 'NONE',  ( 8.379555213223520053E-14, -2.939152317953647894E-15, 24.00000000000000000 ) ) ;
#60 = ADVANCED_FACE ( 'NONE', ( #87, #47 ), #103, .T. ) ;
#61 = DIRECTION ( 'NONE',  ( -3.491481338843133355E-15, 1.224646799147353207E-16, -1.000000000000000000 ) ) ;
#62 = DIRECTION ( 'NONE',  ( -3.491481338843133355E-15, 1.224646799147353207E-16, -1.000000000000000000 ) ) ;
#63 = CLOSED_SHELL ( 'NONE', ( #51, #119, #65 ) ) ;
#64 = PERSON ( 'UNSPECIFIED', 'UNSPECIFIED', 'UNSPECIFIED', ('UNSPECIFIED'), ('UNSPECIFIED'), ('UNSPECIFIED') ) ;
#65 = ADVANCED_FACE ( 'NONE', ( #234 ), #211, .T. ) ;
#66 = CARTESIAN_POINT ( 'NONE',  ( 4.189777606611760026E-14, -1.469576158976823947E-15, 12.00000000000000000 ) ) ;
#67 = AXIS2_PLACEMENT_3D ( 'NONE', #151, #116, #35 ) ;
#68 = EDGE_CURVE ( 'NONE', #183, #183, #40, .T. ) ;
#69 = DIRECTION ( 'NONE',  ( -3.491481338843133355E-15, 1.224646799147353207E-16, -1.000000000000000000 ) ) ;
#70 = APPROVAL_PERSON_ORGANIZATION ( #100, #111, #133 ) ;
#71 = EDGE_LOOP ( 'NONE', ( #182 ) ) ;
#72 = CARTESIAN_POINT ( 'NONE',  ( 4.189777606611760026E-14, 6.999999999999998224, 12.00000000000000000 ) ) ;
#73 = ORIENTED_EDGE ( 'NONE', *, *, #97, .F. ) ;
#74 = CARTESIAN_POINT ( 'NONE',  ( 8.379555213223520053E-14, 6.499999999999996447, 24.00000000000000000 ) ) ;
#75 = CARTESIAN_POINT ( 'NONE',  ( 2.880472104545584198E-13, 6.999999999999985789, 82.49999999999998579 ) ) ;
#76 = CLOSED_SHELL ( 'NONE', ( #1, #60, #161, #187, #83, #177 ) ) ;
#77 = SECURITY_CLASSIFICATION_LEVEL ( 'unclassified' ) ;
#78 = PERSON_AND_ORGANIZATION_ROLE ( 'design_owner' ) ;
#79 = DIRECTION ( 'NONE',  ( 4.275831445896958607E-31, 1.000000000000000000, 1.224646799147353207E-16 ) ) ;
#80 = DIRECTION ( 'NONE',  ( -4.275831445896958607E-31, -1.000000000000000000, -1.224646799147353207E-16 ) ) ;
#81 = LOCAL_TIME ( 11, 23, 19.00000000000000000, #181 ) ;
#82 = DIRECTION ( 'NONE',  ( 0.000000000000000000, 1.000000000000000000, 0.000000000000000000 ) ) ;
#83 = ADVANCED_FACE ( 'NONE', ( #195, #107 ), #121, .T. ) ;
#84 = PRODUCT_DEFINITION_FORMATION_WITH_SPECIFIED_SOURCE ( 'ANY', '', #239, .NOT_KNOWN. ) ;
#85 = PLANE ( 'NONE',  #112 ) ;
#86 = APPROVAL_DATE_TIME ( #220, #222 ) ;
#87 = FACE_OUTER_BOUND ( 'NONE', #71, .T. ) ;
#88 = VERTEX_POINT ( 'NONE', #72 ) ;
#89 = PERSON_AND_ORGANIZATION ( #64, #185 ) ;
#90 = PERSON_AND_ORGANIZATION_ROLE ( 'creator' ) ;
#91 = EDGE_LOOP ( 'NONE', ( #58 ) ) ;
#92 = CALENDAR_DATE ( 2024, 12, 7 ) ;
#93 = ORIENTED_EDGE ( 'NONE', *, *, #128, .T. ) ;
#94 = DATE_TIME_ROLE ( 'creation_date' ) ;
#95 = DIRECTION ( 'NONE',  ( -3.491481338843133355E-15, 1.224646799147353207E-16, -1.000000000000000000 ) ) ;
#96 = APPROVAL_PERSON_ORGANIZATION ( #89, #49, #238 ) ;
#97 = EDGE_CURVE ( 'NONE', #16, #16, #191, .T. ) ;
#98 = AXIS2_PLACEMENT_3D ( 'NONE', #59, #203, #168 ) ;
#99 = FACE_OUTER_BOUND ( 'NONE', #179, .T. ) ;
#100 = PERSON_AND_ORGANIZATION ( #64, #185 ) ;
#101 = FACE_OUTER_BOUND ( 'NONE', #143, .T. ) ;
#102 = CYLINDRICAL_SURFACE ( 'NONE', #159, 6.999999999999993783 ) ;
#103 = CYLINDRICAL_SURFACE ( 'NONE', #8, 6.499999999999999112 ) ;
#104 = DIRECTION ( 'NONE',  ( 4.275831445896958607E-31, 1.000000000000000000, 1.224646799147353207E-16 ) ) ;
#105 = FACE_OUTER_BOUND ( 'NONE', #140, .T. ) ;
#106 = CIRCLE ( 'NONE', #166, 7.000000000000000000 ) ;
#107 = FACE_BOUND ( 'NONE', #208, .T. ) ;
#108 = COORDINATED_UNIVERSAL_TIME_OFFSET ( 1, 0, .AHEAD. ) ;
#109 = CALENDAR_DATE ( 2024, 12, 7 ) ;
#110 = APPROVAL_ROLE ( '' ) ;
#111 = APPROVAL ( #172, 'UNSPECIFIED' ) ;
#112 = AXIS2_PLACEMENT_3D ( 'NONE', #230, #25, #104 ) ;
#113 = CARTESIAN_POINT ( 'NONE',  ( -2.993082012127871200E-30, 1.049831847863300325E-31, -8.572527594031473190E-16 ) ) ;
#114 = EDGE_LOOP ( 'NONE', ( #214 ) ) ;
#115 = CARTESIAN_POINT ( 'NONE',  ( 4.189777606611760026E-14, 4.874219293651033394E-32, 12.00000000000000000 ) ) ;
#116 = DIRECTION ( 'NONE',  ( 0.000000000000000000, 0.000000000000000000, 1.000000000000000000 ) ) ;
#117 =( LENGTH_UNIT ( ) NAMED_UNIT ( * ) SI_UNIT ( .MILLI., .METRE. ) );
#118 = DIRECTION ( 'NONE',  ( 0.000000000000000000, 1.000000000000000000, 0.000000000000000000 ) ) ;
#119 = ADVANCED_FACE ( 'NONE', ( #228, #148 ), #206, .T. ) ;
#120 = DIRECTION ( 'NONE',  ( -3.491481338843133355E-15, 1.224646799147353207E-16, -1.000000000000000000 ) ) ;
#121 = CONICAL_SURFACE ( 'NONE', #45, 6.499999999999995559, 0.7853981633974344012 ) ;
#122 = DIRECTION ( 'NONE',  ( 4.275831445896958607E-31, 1.000000000000000000, 1.224646799147353207E-16 ) ) ;
#123 = CC_DESIGN_APPROVAL ( #222, ( #226 ) ) ;
#124 = DATE_AND_TIME ( #50, #232 ) ;
#125 = COORDINATED_UNIVERSAL_TIME_OFFSET ( 1, 0, .AHEAD. ) ;
#126 = DATE_AND_TIME ( #109, #34 ) ;
#127 = PERSON_AND_ORGANIZATION_ROLE ( 'classification_officer' ) ;
#128 = EDGE_CURVE ( 'NONE', #241, #241, #106, .T. ) ;
#129 = CARTESIAN_POINT ( 'NONE',  ( 0.000000000000000000, 0.000000000000000000, 0.000000000000000000 ) ) ;
#130 = LOCAL_TIME ( 11, 23, 19.00000000000000000, #108 ) ;
#131 = MANIFOLD_SOLID_BREP ( 'Corps-Déplacer/Copier1[1]', #76 ) ;
#132 = AXIS2_PLACEMENT_3D ( 'NONE', #171, #61, #205 ) ;
#133 = APPROVAL_ROLE ( '' ) ;
#134 = CARTESIAN_POINT ( 'NONE',  ( 4.189777606611760026E-14, 5.249159239316498343E-32, 12.00000000000000000 ) ) ;
#135 = CC_DESIGN_SECURITY_CLASSIFICATION ( #226, ( #84 ) ) ;
#136 = DIRECTION ( 'NONE',  ( 0.000000000000000000, 1.000000000000000000, 0.000000000000000000 ) ) ;
#137 = DIRECTION ( 'NONE',  ( -3.491481338843133355E-15, 1.224646799147353207E-16, -1.000000000000000000 ) ) ;
#138 = EDGE_LOOP ( 'NONE', ( #212 ) ) ;
#139 = CARTESIAN_POINT ( 'NONE',  ( 0.000000000000000000, 7.000000000000000000, 0.000000000000000000 ) ) ;
#140 = EDGE_LOOP ( 'NONE', ( #93 ) ) ;
#141 = ADVANCED_BREP_SHAPE_REPRESENTATION ( '976417', ( #131, #56, #67 ), #46 ) ;
#142 = PERSON_AND_ORGANIZATION ( #64, #185 ) ;
#143 = EDGE_LOOP ( 'NONE', ( #240 ) ) ;
#144 = CIRCLE ( 'NONE', #169, 6.999999999999995559 ) ;
#145 = PERSON_AND_ORGANIZATION ( #64, #185 ) ;
#146 = ORIENTED_EDGE ( 'NONE', *, *, #53, .T. ) ;
#147 = CC_DESIGN_APPROVAL ( #111, ( #192 ) ) ;
#148 = FACE_OUTER_BOUND ( 'NONE', #204, .T. ) ;
#149 = CC_DESIGN_PERSON_AND_ORGANIZATION_ASSIGNMENT ( #52, #90, ( #192 ) ) ;
#150 = CARTESIAN_POINT ( 'NONE',  ( 8.379555213223520053E-14, -2.939152317953647894E-15, 24.00000000000000000 ) ) ;
#151 = CARTESIAN_POINT ( 'NONE',  ( 0.000000000000000000, 0.000000000000000000, 0.000000000000000000 ) ) ;
#152 = CIRCLE ( 'NONE', #55, 6.999999999999992006 ) ;
#153 = AXIS2_PLACEMENT_3D ( 'NONE', #66, #155, #210 ) ;
#154 = DIRECTION ( 'NONE',  ( 0.000000000000000000, 1.000000000000000000, 0.000000000000000000 ) ) ;
#155 = DIRECTION ( 'NONE',  ( -3.491481338843133355E-15, 1.224646799147353207E-16, -1.000000000000000000 ) ) ;
#156 = COORDINATED_UNIVERSAL_TIME_OFFSET ( 1, 0, .AHEAD. ) ;
#157 = DIRECTION ( 'NONE',  ( -3.491481338843133355E-15, 1.224646799147353207E-16, -1.000000000000000000 ) ) ;
#158 = CC_DESIGN_DATE_AND_TIME_ASSIGNMENT ( #124, #27, ( #226 ) ) ;
#159 = AXIS2_PLACEMENT_3D ( 'NONE', #213, #95, #11 ) ;
#160 = CARTESIAN_POINT ( 'NONE',  ( 2.897929511239800811E-13, 6.499999999999984901, 83.00000000000000000 ) ) ;
#161 = ADVANCED_FACE ( 'NONE', ( #101, #224 ), #243, .T. ) ;
#162 = DATE_AND_TIME ( #92, #81 ) ;
#163 = PERSON_AND_ORGANIZATION ( #64, #185 ) ;
#164 = CARTESIAN_POINT ( 'NONE',  ( 4.189777606611760026E-14, 6.499999999999997335, 12.00000000000000000 ) ) ;
#165 = CALENDAR_DATE ( 2024, 12, 7 ) ;
#166 = AXIS2_PLACEMENT_3D ( 'NONE', #113, #41, #79 ) ;
#167 = CC_DESIGN_DATE_AND_TIME_ASSIGNMENT ( #162, #94, ( #192 ) ) ;
#168 = DIRECTION ( 'NONE',  ( 0.000000000000000000, -1.000000000000000000, 0.000000000000000000 ) ) ;
#169 = AXIS2_PLACEMENT_3D ( 'NONE', #188, #21, #118 ) ;
#170 = APPLICATION_PROTOCOL_DEFINITION ( 'international standard', 'config_control_design', 1994, #37 ) ;
#171 = CARTESIAN_POINT ( 'NONE',  ( 2.897929511239800811E-13, 4.874219293651018614E-32, 83.00000000000000000 ) ) ;
#172 = APPROVAL_STATUS ( 'not_yet_approved' ) ;
#173 = DIRECTION ( 'NONE',  ( 3.491481338843133355E-15, -1.224646799147353207E-16, 1.000000000000000000 ) ) ;
#174 = AXIS2_PLACEMENT_3D ( 'NONE', #48, #157, #82 ) ;
#175 = EDGE_CURVE ( 'NONE', #216, #216, #144, .T. ) ;
#176 = PERSON_AND_ORGANIZATION ( #64, #185 ) ;
#177 = ADVANCED_FACE ( 'NONE', ( #99 ), #227, .F. ) ;
#178 = DATE_AND_TIME ( #165, #219 ) ;
#179 = EDGE_LOOP ( 'NONE', ( #223 ) ) ;
#180 = CIRCLE ( 'NONE', #153, 7.000000000000000000 ) ;
#181 = COORDINATED_UNIVERSAL_TIME_OFFSET ( 1, 0, .AHEAD. ) ;
#182 = ORIENTED_EDGE ( 'NONE', *, *, #5, .T. ) ;
#183 = VERTEX_POINT ( 'NONE', #160 ) ;
#184 = CALENDAR_DATE ( 2024, 12, 7 ) ;
#185 = ORGANIZATION ( 'UNSPECIFIED', 'UNSPECIFIED', '' ) ;
#186 = DESIGN_CONTEXT ( 'detailed design', #196, 'design' ) ;
#187 = ADVANCED_FACE ( 'NONE', ( #20, #23 ), #102, .T. ) ;
#188 = CARTESIAN_POINT ( 'NONE',  ( 2.880472104545584198E-13, -1.010333609296566392E-14, 82.49999999999998579 ) ) ;
#189 =( NAMED_UNIT ( * ) PLANE_ANGLE_UNIT ( ) SI_UNIT ( $, .RADIAN. ) );
#190 = DIRECTION ( 'NONE',  ( -3.491481338843133355E-15, 1.224646799147353207E-16, -1.000000000000000000 ) ) ;
#191 = CIRCLE ( 'NONE', #236, 6.499999999999999112 ) ;
#192 = PRODUCT_DEFINITION ( 'UNKNOWN', '', #84, #186 ) ;
#193 = CARTESIAN_POINT ( 'NONE',  ( 0.000000000000000000, 0.000000000000000000, 0.000000000000000000 ) ) ;
#194 = PRODUCT_RELATED_PRODUCT_CATEGORY ( 'detail', '', ( #239 ) ) ;
#195 = FACE_OUTER_BOUND ( 'NONE', #138, .T. ) ;
#196 = APPLICATION_CONTEXT ( 'configuration controlled 3d designs of mechanical parts and assemblies' ) ;
#197 = CC_DESIGN_APPROVAL ( #49, ( #84 ) ) ;
#198 = ORIENTED_EDGE ( 'NONE', *, *, #128, .F. ) ;
#199 = APPROVAL_STATUS ( 'not_yet_approved' ) ;
#200 = APPROVAL_STATUS ( 'not_yet_approved' ) ;
#201 = CC_DESIGN_PERSON_AND_ORGANIZATION_ASSIGNMENT ( #2, #78, ( #239 ) ) ;
#202 = AXIS2_PLACEMENT_3D ( 'NONE', #129, #62, #39 ) ;
#203 = DIRECTION ( 'NONE',  ( 3.491481338843133355E-15, -1.224646799147353207E-16, 1.000000000000000000 ) ) ;
#204 = EDGE_LOOP ( 'NONE', ( #198 ) ) ;
#205 = DIRECTION ( 'NONE',  ( 4.275831445896958607E-31, 1.000000000000000000, 1.224646799147353207E-16 ) ) ;
#206 = CYLINDRICAL_SURFACE ( 'NONE', #202, 7.000000000000000000 ) ;
#207 = MECHANICAL_CONTEXT ( 'NONE', #37, 'mechanical' ) ;
#208 = EDGE_LOOP ( 'NONE', ( #17 ) ) ;
#209 = AXIS2_PLACEMENT_3D ( 'NONE', #115, #38, #80 ) ;
#210 = DIRECTION ( 'NONE',  ( 0.000000000000000000, 1.000000000000000000, 0.000000000000000000 ) ) ;
#211 = PLANE ( 'NONE',  #4 ) ;
#212 = ORIENTED_EDGE ( 'NONE', *, *, #175, .F. ) ;
#213 = CARTESIAN_POINT ( 'NONE',  ( 0.000000000000000000, 0.000000000000000000, 0.000000000000000000 ) ) ;
#214 = ORIENTED_EDGE ( 'NONE', *, *, #53, .F. ) ;
#215 = EDGE_LOOP ( 'NONE', ( #43 ) ) ;
#216 = VERTEX_POINT ( 'NONE', #75 ) ;
#217 = PERSON_AND_ORGANIZATION_ROLE ( 'creator' ) ;
#218 = ORIENTED_EDGE ( 'NONE', *, *, #6, .F. ) ;
#219 = LOCAL_TIME ( 11, 23, 19.00000000000000000, #125 ) ;
#220 = DATE_AND_TIME ( #184, #130 ) ;
#221 = EDGE_LOOP ( 'NONE', ( #146 ) ) ;
#222 = APPROVAL ( #200, 'UNSPECIFIED' ) ;
#223 = ORIENTED_EDGE ( 'NONE', *, *, #68, .F. ) ;
#224 = FACE_BOUND ( 'NONE', #215, .T. ) ;
#225 = PLANE ( 'NONE',  #209 ) ;
#226 = SECURITY_CLASSIFICATION ( '', '', #77 ) ;
#227 = PLANE ( 'NONE',  #132 ) ;
#228 = FACE_OUTER_BOUND ( 'NONE', #221, .T. ) ;
#229 = APPROVAL_PERSON_ORGANIZATION ( #176, #222, #110 ) ;
#230 = CARTESIAN_POINT ( 'NONE',  ( -1.496541006063935600E-30, 5.249159239316501627E-32, -4.286263797015736595E-16 ) ) ;
#231 = CARTESIAN_POINT ( 'NONE',  ( 4.189777606611760026E-14, -1.469576158976823947E-15, 12.00000000000000000 ) ) ;
#232 = LOCAL_TIME ( 11, 23, 19.00000000000000000, #31 ) ;
#233 = CARTESIAN_POINT ( 'NONE',  ( 8.554129280165677352E-14, -3.000384657911015469E-15, 24.50000000000000000 ) ) ;
#234 = FACE_OUTER_BOUND ( 'NONE', #114, .T. ) ;
#235 = VERTEX_POINT ( 'NONE', #26 ) ;
#236 = AXIS2_PLACEMENT_3D ( 'NONE', #231, #120, #54 ) ;
#237 = PERSON_AND_ORGANIZATION_ROLE ( 'design_supplier' ) ;
#238 = APPROVAL_ROLE ( '' ) ;
#239 = PRODUCT ( '976417', '976417', '', ( #207 ) ) ;
#240 = ORIENTED_EDGE ( 'NONE', *, *, #6, .T. ) ;
#241 = VERTEX_POINT ( 'NONE', #139 ) ;
#242 = APPROVAL_DATE_TIME ( #178, #49 ) ;
#243 = CONICAL_SURFACE ( 'NONE', #98, 6.499999999999999112, 0.7853981633974415066 ) ;
ENDSEC;
END-ISO-10303-21;
