ISO-10303-21;
HEADER;
FILE_DESCRIPTION (( 'STEP AP203' ),
    '1' );
FILE_NAME ('976416.step',
    '2024-07-12T09:23:19',
    ( '' ),
    ( '' ),
    'SwSTEP 2.0',
    'SolidWorks 2022',
    '' );
FILE_SCHEMA (( 'CONFIG_CONTROL_DESIGN' ));
ENDSEC;

DATA;
#1 = EDGE_CURVE ( 'NONE', #120, #120, #204, .T. ) ;
#2 = COORDINATED_UNIVERSAL_TIME_OFFSET ( 1, 0, .AHEAD. ) ;
#3 = CIRCLE ( 'NONE', #184, 5.500000000000005329 ) ;
#4 = APPROVAL_PERSON_ORGANIZATION ( #188, #159, #241 ) ;
#5 = ADVANCED_FACE ( 'NONE', ( #16, #221 ), #152, .T. ) ;
#6 = EDGE_CURVE ( 'NONE', #170, #170, #194, .T. ) ;
#7 = APPROVAL ( #190, 'UNSPECIFIED' ) ;
#8 = FACE_OUTER_BOUND ( 'NONE', #68, .T. ) ;
#9 = ORIENTED_EDGE ( 'NONE', *, *, #63, .F. ) ;
#10 = DIRECTION ( 'NONE',  ( -3.491481338843133355E-15, 1.224646799147353207E-16, -1.000000000000000000 ) ) ;
#11 = DATE_AND_TIME ( #71, #172 ) ;
#12 = AXIS2_PLACEMENT_3D ( 'NONE', #164, #238, #79 ) ;
#13 = PERSON_AND_ORGANIZATION_ROLE ( 'design_owner' ) ;
#14 = FACE_OUTER_BOUND ( 'NONE', #212, .T. ) ;
#15 = CALENDAR_DATE ( 2024, 12, 7 ) ;
#16 = FACE_OUTER_BOUND ( 'NONE', #141, .T. ) ;
#17 = AXIS2_PLACEMENT_3D ( 'NONE', #220, #25, #223 ) ;
#18 = CARTESIAN_POINT ( 'NONE',  ( 2.618611004132350143E-13, 5.499999999999990230, 75.00000000000000000 ) ) ;
#19 = CARTESIAN_POINT ( 'NONE',  ( 4.364351673553916568E-13, -1.530808498934191561E-14, 125.0000000000000000 ) ) ;
#20 = PRODUCT_DEFINITION_FORMATION_WITH_SPECIFIED_SOURCE ( 'ANY', '', #142, .NOT_KNOWN. ) ;
#21 = CARTESIAN_POINT ( 'NONE',  ( 2.618611004132350143E-13, -9.184850993605148733E-15, 75.00000000000000000 ) ) ;
#22 = AXIS2_PLACEMENT_3D ( 'NONE', #114, #54, #90 ) ;
#23 = AXIS2_PLACEMENT_3D ( 'NONE', #85, #235, #126 ) ;
#24 = DATE_AND_TIME ( #15, #78 ) ;
#25 = DIRECTION ( 'NONE',  ( -3.491481338843133355E-15, 1.224646799147353207E-16, -1.000000000000000000 ) ) ;
#26 = AXIS2_PLACEMENT_3D ( 'NONE', #226, #200, #89 ) ;
#27 = EDGE_LOOP ( 'NONE', ( #217 ) ) ;
#28 = AXIS2_PLACEMENT_3D ( 'NONE', #53, #209, #40 ) ;
#29 = CARTESIAN_POINT ( 'NONE',  ( 4.189777606611760026E-14, -1.469576158976823947E-15, 12.00000000000000000 ) ) ;
#30 = CYLINDRICAL_SURFACE ( 'NONE', #99, 5.499999999999998224 ) ;
#31 = PERSON_AND_ORGANIZATION ( #39, #44 ) ;
#32 = CC_DESIGN_SECURITY_CLASSIFICATION ( #43, ( #20 ) ) ;
#33 = DATE_AND_TIME ( #205, #213 ) ;
#34 = CARTESIAN_POINT ( 'NONE',  ( 2.618611004132350143E-13, -9.184850993605148733E-15, 75.00000000000000000 ) ) ;
#35 = ORIENTED_EDGE ( 'NONE', *, *, #63, .T. ) ;
#36 = PERSON_AND_ORGANIZATION_ROLE ( 'design_supplier' ) ;
#37 = PLANE ( 'NONE',  #123 ) ;
#38 = DATE_AND_TIME ( #111, #186 ) ;
#39 = PERSON ( 'UNSPECIFIED', 'UNSPECIFIED', 'UNSPECIFIED', ('UNSPECIFIED'), ('UNSPECIFIED'), ('UNSPECIFIED') ) ;
#40 = DIRECTION ( 'NONE',  ( 4.275831445896958607E-31, 1.000000000000000000, 1.224646799147353207E-16 ) ) ;
#41 = FACE_OUTER_BOUND ( 'NONE', #107, .T. ) ;
#42 = DIRECTION ( 'NONE',  ( 0.000000000000000000, 1.000000000000000000, 0.000000000000000000 ) ) ;
#43 = SECURITY_CLASSIFICATION ( '', '', #136 ) ;
#44 = ORGANIZATION ( 'UNSPECIFIED', 'UNSPECIFIED', '' ) ;
#45 = APPLICATION_PROTOCOL_DEFINITION ( 'international standard', 'config_control_design', 1994, #233 ) ;
#46 = CARTESIAN_POINT ( 'NONE',  ( -2.565498867538175514E-30, 8.998558695971145647E-32, -7.347880794884119736E-16 ) ) ;
#47 = EDGE_LOOP ( 'NONE', ( #105 ) ) ;
#48 = FACE_BOUND ( 'NONE', #163, .T. ) ;
#49 = APPROVAL_PERSON_ORGANIZATION ( #31, #7, #156 ) ;
#50 = EDGE_CURVE ( 'NONE', #113, #113, #91, .T. ) ;
#51 = MANIFOLD_SOLID_BREP ( 'Corps-Déplacer/Copier1[1]', #237 ) ;
#52 = ADVANCED_FACE ( 'NONE', ( #14 ), #227, .F. ) ;
#53 = CARTESIAN_POINT ( 'NONE',  ( -1.282749433769087757E-30, 4.499279347985572824E-32, -3.673940397442059868E-16 ) ) ;
#54 = DIRECTION ( 'NONE',  ( 3.491481338843133355E-15, -1.224646799147353207E-16, 1.000000000000000000 ) ) ;
#55 = APPROVAL_ROLE ( '' ) ;
#56 = VERTEX_POINT ( 'NONE', #206 ) ;
#57 = AXIS2_PLACEMENT_3D ( 'NONE', #69, #185, #70 ) ;
#58 = ADVANCED_FACE ( 'NONE', ( #242, #150 ), #30, .T. ) ;
#59 = PERSON_AND_ORGANIZATION ( #39, #44 ) ;
#60 = CARTESIAN_POINT ( 'NONE',  ( 4.364351673553916568E-13, 5.499999999999989342, 125.0000000000000000 ) ) ;
#61 = CC_DESIGN_DATE_AND_TIME_ASSIGNMENT ( #169, #96, ( #43 ) ) ;
#62 = CLOSED_SHELL ( 'NONE', ( #203, #167, #66 ) ) ;
#63 = EDGE_CURVE ( 'NONE', #133, #133, #231, .T. ) ;
#64 = DIRECTION ( 'NONE',  ( 4.275831445896958607E-31, 1.000000000000000000, 1.224646799147353207E-16 ) ) ;
#65 = PRODUCT_DEFINITION_SHAPE ( 'NONE', 'NONE',  #76 ) ;
#66 = ADVANCED_FACE ( 'NONE', ( #41 ), #37, .T. ) ;
#67 = FACE_OUTER_BOUND ( 'NONE', #47, .T. ) ;
#68 = EDGE_LOOP ( 'NONE', ( #165 ) ) ;
#69 = CARTESIAN_POINT ( 'NONE',  ( 0.000000000000000000, 0.000000000000000000, 0.000000000000000000 ) ) ;
#70 = DIRECTION ( 'NONE',  ( 4.275831445896959482E-31, 1.000000000000000000, 1.224646799147353207E-16 ) ) ;
#71 = CALENDAR_DATE ( 2024, 12, 7 ) ;
#72 = PERSON_AND_ORGANIZATION ( #39, #44 ) ;
#73 = PERSON_AND_ORGANIZATION ( #39, #44 ) ;
#74 = APPROVAL ( #94, 'UNSPECIFIED' ) ;
#75 = CARTESIAN_POINT ( 'NONE',  ( 2.636068410826565746E-13, 5.999999999999984901, 75.50000000000000000 ) ) ;
#76 = PRODUCT_DEFINITION ( 'UNKNOWN', '', #20, #82 ) ;
#77 = CARTESIAN_POINT ( 'NONE',  ( 4.189777606611760026E-14, 4.499279347985570634E-32, 12.00000000000000000 ) ) ;
#78 = LOCAL_TIME ( 11, 23, 19.00000000000000000, #218 ) ;
#79 = DIRECTION ( 'NONE',  ( 0.000000000000000000, 1.000000000000000000, 0.000000000000000000 ) ) ;
#80 = CC_DESIGN_PERSON_AND_ORGANIZATION_ASSIGNMENT ( #166, #13, ( #142 ) ) ;
#81 = AXIS2_PLACEMENT_3D ( 'NONE', #34, #116, #192 ) ;
#82 = DESIGN_CONTEXT ( 'detailed design', #183, 'design' ) ;
#83 = FACE_OUTER_BOUND ( 'NONE', #127, .T. ) ;
#84 =( NAMED_UNIT ( * ) SI_UNIT ( $, .STERADIAN. ) SOLID_ANGLE_UNIT ( ) );
#85 = CARTESIAN_POINT ( 'NONE',  ( 0.000000000000000000, 0.000000000000000000, 0.000000000000000000 ) ) ;
#86 = APPROVAL_DATE_TIME ( #24, #159 ) ;
#87 = AXIS2_PLACEMENT_3D ( 'NONE', #19, #100, #140 ) ;
#88 = CC_DESIGN_APPROVAL ( #7, ( #20 ) ) ;
#89 = DIRECTION ( 'NONE',  ( 0.000000000000000000, 1.000000000000000000, 0.000000000000000000 ) ) ;
#90 = DIRECTION ( 'NONE',  ( -4.275831445896958607E-31, -1.000000000000000000, -1.224646799147353207E-16 ) ) ;
#91 = CIRCLE ( 'NONE', #198, 6.000000000000000000 ) ;
#92 = APPLICATION_PROTOCOL_DEFINITION ( 'international standard', 'config_control_design', 1994, #183 ) ;
#93 = ADVANCED_FACE ( 'NONE', ( #83, #48 ), #171, .T. ) ;
#94 = APPROVAL_STATUS ( 'not_yet_approved' ) ;
#95 = CC_DESIGN_DATE_AND_TIME_ASSIGNMENT ( #11, #151, ( #76 ) ) ;
#96 = DATE_TIME_ROLE ( 'classification_date' ) ;
#97 =( NAMED_UNIT ( * ) PLANE_ANGLE_UNIT ( ) SI_UNIT ( $, .RADIAN. ) );
#98 = VERTEX_POINT ( 'NONE', #60 ) ;
#99 = AXIS2_PLACEMENT_3D ( 'NONE', #211, #230, #207 ) ;
#100 = DIRECTION ( 'NONE',  ( -3.491481338843133355E-15, 1.224646799147353207E-16, -1.000000000000000000 ) ) ;
#101 = PRODUCT_RELATED_PRODUCT_CATEGORY ( 'detail', '', ( #142 ) ) ;
#102 = DIRECTION ( 'NONE',  ( 0.000000000000000000, 0.000000000000000000, 1.000000000000000000 ) ) ;
#103 = PLANE ( 'NONE',  #196 ) ;
#104 = CC_DESIGN_PERSON_AND_ORGANIZATION_ASSIGNMENT ( #59, #118, ( #43 ) ) ;
#105 = ORIENTED_EDGE ( 'NONE', *, *, #1, .T. ) ;
#106 = DIRECTION ( 'NONE',  ( 0.000000000000000000, -1.000000000000000000, 0.000000000000000000 ) ) ;
#107 = EDGE_LOOP ( 'NONE', ( #155 ) ) ;
#108 = FACE_OUTER_BOUND ( 'NONE', #27, .T. ) ;
#109 = ORIENTED_EDGE ( 'NONE', *, *, #6, .T. ) ;
#110 =( GEOMETRIC_REPRESENTATION_CONTEXT ( 3 ) GLOBAL_UNCERTAINTY_ASSIGNED_CONTEXT ( ( #125 ) ) GLOBAL_UNIT_ASSIGNED_CONTEXT ( ( #175, #97, #84 ) ) REPRESENTATION_CONTEXT ( 'NONE', 'WORKASPACE' ) );
#111 = CALENDAR_DATE ( 2024, 12, 7 ) ;
#112 = CONICAL_SURFACE ( 'NONE', #177, 5.500000000000000000, 0.7853981633974422838 ) ;
#113 = VERTEX_POINT ( 'NONE', #153 ) ;
#114 = CARTESIAN_POINT ( 'NONE',  ( 4.189777606611760026E-14, 4.124339402320102948E-32, 12.00000000000000000 ) ) ;
#115 = ORIENTED_EDGE ( 'NONE', *, *, #132, .T. ) ;
#116 = DIRECTION ( 'NONE',  ( -3.491481338843133355E-15, 1.224646799147353207E-16, -1.000000000000000000 ) ) ;
#117 = APPROVAL_DATE_TIME ( #33, #74 ) ;
#118 = PERSON_AND_ORGANIZATION_ROLE ( 'classification_officer' ) ;
#119 = CIRCLE ( 'NONE', #158, 6.000000000000000000 ) ;
#120 = VERTEX_POINT ( 'NONE', #75 ) ;
#121 = CALENDAR_DATE ( 2024, 12, 7 ) ;
#122 = EDGE_CURVE ( 'NONE', #56, #56, #224, .T. ) ;
#123 = AXIS2_PLACEMENT_3D ( 'NONE', #77, #154, #161 ) ;
#124 = FACE_OUTER_BOUND ( 'NONE', #201, .T. ) ;
#125 = UNCERTAINTY_MEASURE_WITH_UNIT (LENGTH_MEASURE( 1.000000000000000082E-05 ), #175, 'distance_accuracy_value', 'NONE');
#126 = DIRECTION ( 'NONE',  ( 4.275831445896959482E-31, 1.000000000000000000, 1.224646799147353207E-16 ) ) ;
#127 = EDGE_LOOP ( 'NONE', ( #145 ) ) ;
#128 = CC_DESIGN_APPROVAL ( #159, ( #76 ) ) ;
#129 = EDGE_LOOP ( 'NONE', ( #9 ) ) ;
#130 = ORIENTED_EDGE ( 'NONE', *, *, #1, .F. ) ;
#131 = EDGE_LOOP ( 'NONE', ( #144 ) ) ;
#132 = EDGE_CURVE ( 'NONE', #232, #232, #119, .T. ) ;
#133 = VERTEX_POINT ( 'NONE', #18 ) ;
#134 = MANIFOLD_SOLID_BREP ( 'Corps-Déplacer/Copier1[2]', #62 ) ;
#135 = AXIS2_PLACEMENT_3D ( 'NONE', #195, #102, #178 ) ;
#136 = SECURITY_CLASSIFICATION_LEVEL ( 'unclassified' ) ;
#137 = DIRECTION ( 'NONE',  ( -3.491481338843133355E-15, 1.224646799147353207E-16, -1.000000000000000000 ) ) ;
#138 = CC_DESIGN_PERSON_AND_ORGANIZATION_ASSIGNMENT ( #168, #243, ( #76 ) ) ;
#139 = ORIENTED_EDGE ( 'NONE', *, *, #182, .T. ) ;
#140 = DIRECTION ( 'NONE',  ( 0.000000000000000000, 1.000000000000000000, 0.000000000000000000 ) ) ;
#141 = EDGE_LOOP ( 'NONE', ( #130 ) ) ;
#142 = PRODUCT ( '976416', '976416', '', ( #160 ) ) ;
#143 = FACE_OUTER_BOUND ( 'NONE', #214, .T. ) ;
#144 = ORIENTED_EDGE ( 'NONE', *, *, #122, .T. ) ;
#145 = ORIENTED_EDGE ( 'NONE', *, *, #122, .F. ) ;
#146 = CC_DESIGN_APPROVAL ( #74, ( #43 ) ) ;
#147 = APPROVAL_STATUS ( 'not_yet_approved' ) ;
#148 = DIRECTION ( 'NONE',  ( 0.000000000000000000, 1.000000000000000000, 0.000000000000000000 ) ) ;
#149 = CC_DESIGN_PERSON_AND_ORGANIZATION_ASSIGNMENT ( #228, #36, ( #20 ) ) ;
#150 = FACE_OUTER_BOUND ( 'NONE', #180, .T. ) ;
#151 = DATE_TIME_ROLE ( 'creation_date' ) ;
#152 = CYLINDRICAL_SURFACE ( 'NONE', #57, 6.000000000000000000 ) ;
#153 = CARTESIAN_POINT ( 'NONE',  ( 4.189777606611760026E-14, 5.999999999999998224, 12.00000000000000000 ) ) ;
#154 = DIRECTION ( 'NONE',  ( 3.491481338843133355E-15, -1.224646799147353207E-16, 1.000000000000000000 ) ) ;
#155 = ORIENTED_EDGE ( 'NONE', *, *, #50, .F. ) ;
#156 = APPROVAL_ROLE ( '' ) ;
#157 = ADVANCED_BREP_SHAPE_REPRESENTATION ( '976416', ( #51, #134, #135 ), #110 ) ;
#158 = AXIS2_PLACEMENT_3D ( 'NONE', #46, #162, #239 ) ;
#159 = APPROVAL ( #147, 'UNSPECIFIED' ) ;
#160 = MECHANICAL_CONTEXT ( 'NONE', #233, 'mechanical' ) ;
#161 = DIRECTION ( 'NONE',  ( -4.275831445896958607E-31, -1.000000000000000000, -1.224646799147353207E-16 ) ) ;
#162 = DIRECTION ( 'NONE',  ( -3.491481338843133355E-15, 1.224646799147353207E-16, -1.000000000000000000 ) ) ;
#163 = EDGE_LOOP ( 'NONE', ( #139 ) ) ;
#164 = CARTESIAN_POINT ( 'NONE',  ( 4.346894266859700964E-13, -1.524685264938454803E-14, 124.5000000000000000 ) ) ;
#165 = ORIENTED_EDGE ( 'NONE', *, *, #50, .T. ) ;
#166 = PERSON_AND_ORGANIZATION ( #39, #44 ) ;
#167 = ADVANCED_FACE ( 'NONE', ( #8, #143 ), #215, .T. ) ;
#168 = PERSON_AND_ORGANIZATION ( #39, #44 ) ;
#169 = DATE_AND_TIME ( #121, #219 ) ;
#170 = VERTEX_POINT ( 'NONE', #229 ) ;
#171 = CONICAL_SURFACE ( 'NONE', #87, 5.500000000000005329, 0.7853981633974482790 ) ;
#172 = LOCAL_TIME ( 11, 23, 19.00000000000000000, #222 ) ;
#173 = APPROVAL_DATE_TIME ( #38, #7 ) ;
#174 = ORIENTED_EDGE ( 'NONE', *, *, #6, .F. ) ;
#175 =( LENGTH_UNIT ( ) NAMED_UNIT ( * ) SI_UNIT ( .MILLI., .METRE. ) );
#176 = SHAPE_DEFINITION_REPRESENTATION ( #65, #157 ) ;
#177 = AXIS2_PLACEMENT_3D ( 'NONE', #21, #197, #106 ) ;
#178 = DIRECTION ( 'NONE',  ( 1.000000000000000000, 0.000000000000000000, 0.000000000000000000 ) ) ;
#179 = PLANE ( 'NONE',  #28 ) ;
#180 = EDGE_LOOP ( 'NONE', ( #174 ) ) ;
#181 = ADVANCED_FACE ( 'NONE', ( #67, #216 ), #112, .T. ) ;
#182 = EDGE_CURVE ( 'NONE', #98, #98, #3, .T. ) ;
#183 = APPLICATION_CONTEXT ( 'configuration controlled 3d designs of mechanical parts and assemblies' ) ;
#184 = AXIS2_PLACEMENT_3D ( 'NONE', #199, #137, #42 ) ;
#185 = DIRECTION ( 'NONE',  ( -3.491481338843133355E-15, 1.224646799147353207E-16, -1.000000000000000000 ) ) ;
#186 = LOCAL_TIME ( 11, 23, 19.00000000000000000, #2 ) ;
#187 = DIRECTION ( 'NONE',  ( -3.491481338843133355E-15, 1.224646799147353207E-16, -1.000000000000000000 ) ) ;
#188 = PERSON_AND_ORGANIZATION ( #39, #44 ) ;
#189 = ADVANCED_FACE ( 'NONE', ( #108 ), #103, .F. ) ;
#190 = APPROVAL_STATUS ( 'not_yet_approved' ) ;
#191 = COORDINATED_UNIVERSAL_TIME_OFFSET ( 1, 0, .AHEAD. ) ;
#192 = DIRECTION ( 'NONE',  ( 0.000000000000000000, 1.000000000000000000, 0.000000000000000000 ) ) ;
#193 = COORDINATED_UNIVERSAL_TIME_OFFSET ( 1, 0, .AHEAD. ) ;
#194 = CIRCLE ( 'NONE', #26, 5.499999999999996447 ) ;
#195 = CARTESIAN_POINT ( 'NONE',  ( 0.000000000000000000, 0.000000000000000000, 0.000000000000000000 ) ) ;
#196 = AXIS2_PLACEMENT_3D ( 'NONE', #234, #10, #64 ) ;
#197 = DIRECTION ( 'NONE',  ( 3.491481338843133355E-15, -1.224646799147353207E-16, 1.000000000000000000 ) ) ;
#198 = AXIS2_PLACEMENT_3D ( 'NONE', #29, #187, #148 ) ;
#199 = CARTESIAN_POINT ( 'NONE',  ( 4.364351673553916568E-13, -1.530808498934191561E-14, 125.0000000000000000 ) ) ;
#200 = DIRECTION ( 'NONE',  ( -3.491481338843133355E-15, 1.224646799147353207E-16, -1.000000000000000000 ) ) ;
#201 = EDGE_LOOP ( 'NONE', ( #115 ) ) ;
#202 = ORIENTED_EDGE ( 'NONE', *, *, #132, .F. ) ;
#203 = ADVANCED_FACE ( 'NONE', ( #124 ), #179, .T. ) ;
#204 = CIRCLE ( 'NONE', #17, 5.999999999999993783 ) ;
#205 = CALENDAR_DATE ( 2024, 12, 7 ) ;
#206 = CARTESIAN_POINT ( 'NONE',  ( 4.346894266859700964E-13, 5.999999999999989342, 124.5000000000000000 ) ) ;
#207 = DIRECTION ( 'NONE',  ( 4.275831445896958607E-31, 1.000000000000000000, 1.224646799147353207E-16 ) ) ;
#208 = CARTESIAN_POINT ( 'NONE',  ( 0.000000000000000000, 6.000000000000000000, 0.000000000000000000 ) ) ;
#209 = DIRECTION ( 'NONE',  ( -3.491481338843133355E-15, 1.224646799147353207E-16, -1.000000000000000000 ) ) ;
#210 = PERSON_AND_ORGANIZATION_ROLE ( 'creator' ) ;
#211 = CARTESIAN_POINT ( 'NONE',  ( 0.000000000000000000, 0.000000000000000000, 0.000000000000000000 ) ) ;
#212 = EDGE_LOOP ( 'NONE', ( #109 ) ) ;
#213 = LOCAL_TIME ( 11, 23, 19.00000000000000000, #193 ) ;
#214 = EDGE_LOOP ( 'NONE', ( #202 ) ) ;
#215 = CYLINDRICAL_SURFACE ( 'NONE', #23, 6.000000000000000000 ) ;
#216 = FACE_BOUND ( 'NONE', #129, .T. ) ;
#217 = ORIENTED_EDGE ( 'NONE', *, *, #182, .F. ) ;
#218 = COORDINATED_UNIVERSAL_TIME_OFFSET ( 1, 0, .AHEAD. ) ;
#219 = LOCAL_TIME ( 11, 23, 19.00000000000000000, #191 ) ;
#220 = CARTESIAN_POINT ( 'NONE',  ( 2.636068410826565746E-13, -9.246083333562516307E-15, 75.50000000000000000 ) ) ;
#221 = FACE_OUTER_BOUND ( 'NONE', #131, .T. ) ;
#222 = COORDINATED_UNIVERSAL_TIME_OFFSET ( 1, 0, .AHEAD. ) ;
#223 = DIRECTION ( 'NONE',  ( 0.000000000000000000, 1.000000000000000000, 0.000000000000000000 ) ) ;
#224 = CIRCLE ( 'NONE', #12, 6.000000000000005329 ) ;
#225 = APPROVAL_PERSON_ORGANIZATION ( #72, #74, #55 ) ;
#226 = CARTESIAN_POINT ( 'NONE',  ( 4.189777606611760026E-14, -1.469576158976823947E-15, 12.00000000000000000 ) ) ;
#227 = PLANE ( 'NONE',  #22 ) ;
#228 = PERSON_AND_ORGANIZATION ( #39, #44 ) ;
#229 = CARTESIAN_POINT ( 'NONE',  ( 4.189777606611760026E-14, 5.499999999999994671, 12.00000000000000000 ) ) ;
#230 = DIRECTION ( 'NONE',  ( -3.491481338843133355E-15, 1.224646799147353207E-16, -1.000000000000000000 ) ) ;
#231 = CIRCLE ( 'NONE', #81, 5.500000000000000000 ) ;
#232 = VERTEX_POINT ( 'NONE', #208 ) ;
#233 = APPLICATION_CONTEXT ( 'configuration controlled 3d designs of mechanical parts and assemblies' ) ;
#234 = CARTESIAN_POINT ( 'NONE',  ( 4.364351673553916568E-13, 4.124339402320088716E-32, 125.0000000000000000 ) ) ;
#235 = DIRECTION ( 'NONE',  ( -3.491481338843133355E-15, 1.224646799147353207E-16, -1.000000000000000000 ) ) ;
#236 = CC_DESIGN_PERSON_AND_ORGANIZATION_ASSIGNMENT ( #73, #210, ( #20 ) ) ;
#237 = CLOSED_SHELL ( 'NONE', ( #52, #58, #181, #5, #93, #189 ) ) ;
#238 = DIRECTION ( 'NONE',  ( -3.491481338843133355E-15, 1.224646799147353207E-16, -1.000000000000000000 ) ) ;
#239 = DIRECTION ( 'NONE',  ( 4.275831445896959482E-31, 1.000000000000000000, 1.224646799147353207E-16 ) ) ;
#240 = EDGE_LOOP ( 'NONE', ( #35 ) ) ;
#241 = APPROVAL_ROLE ( '' ) ;
#242 = FACE_OUTER_BOUND ( 'NONE', #240, .T. ) ;
#243 = PERSON_AND_ORGANIZATION_ROLE ( 'creator' ) ;
ENDSEC;
END-ISO-10303-21;
