ISO-10303-21;
HEADER;
FILE_DESCRIPTION (( 'STEP AP203' ),
    '1' );
FILE_NAME ('976415.step',
    '2024-07-12T09:23:18',
    ( '' ),
    ( '' ),
    'SwSTEP 2.0',
    'SolidWorks 2022',
    '' );
FILE_SCHEMA (( 'CONFIG_CONTROL_DESIGN' ));
ENDSEC;

DATA;
#1 = EDGE_LOOP ( 'NONE', ( #27 ) ) ;
#2 = FACE_OUTER_BOUND ( 'NONE', #239, .T. ) ;
#3 = DIRECTION ( 'NONE',  ( -3.491481338843133355E-15, 1.224646799147353207E-16, -1.000000000000000000 ) ) ;
#4 = VERTEX_POINT ( 'NONE', #74 ) ;
#5 = PERSON_AND_ORGANIZATION_ROLE ( 'classification_officer' ) ;
#6 = DIRECTION ( 'NONE',  ( 0.000000000000000000, 1.000000000000000000, 0.000000000000000000 ) ) ;
#7 = CC_DESIGN_PERSON_AND_ORGANIZATION_ASSIGNMENT ( #234, #165, ( #181 ) ) ;
#8 = PERSON_AND_ORGANIZATION ( #109, #206 ) ;
#9 = DIRECTION ( 'NONE',  ( 3.491481338843133355E-15, -1.224646799147353207E-16, 1.000000000000000000 ) ) ;
#10 = DATE_TIME_ROLE ( 'creation_date' ) ;
#11 = ORIENTED_EDGE ( 'NONE', *, *, #148, .F. ) ;
#12 = ADVANCED_FACE ( 'NONE', ( #67, #53 ), #121, .T. ) ;
#13 = AXIS2_PLACEMENT_3D ( 'NONE', #224, #174, #16 ) ;
#14 = AXIS2_PLACEMENT_3D ( 'NONE', #48, #63, #186 ) ;
#15 = PERSON_AND_ORGANIZATION ( #109, #206 ) ;
#16 = DIRECTION ( 'NONE',  ( 0.000000000000000000, 1.000000000000000000, 0.000000000000000000 ) ) ;
#17 = FACE_OUTER_BOUND ( 'NONE', #115, .T. ) ;
#18 = APPROVAL_PERSON_ORGANIZATION ( #41, #190, #185 ) ;
#19 = PLANE ( 'NONE',  #35 ) ;
#20 = CC_DESIGN_PERSON_AND_ORGANIZATION_ASSIGNMENT ( #8, #130, ( #193 ) ) ;
#21 = CC_DESIGN_APPROVAL ( #190, ( #44 ) ) ;
#22 = FACE_OUTER_BOUND ( 'NONE', #137, .T. ) ;
#23 = COORDINATED_UNIVERSAL_TIME_OFFSET ( 1, 0, .AHEAD. ) ;
#24 = DIRECTION ( 'NONE',  ( 0.000000000000000000, 0.000000000000000000, 1.000000000000000000 ) ) ;
#25 = CIRCLE ( 'NONE', #143, 5.499999999999994671 ) ;
#26 = SHAPE_DEFINITION_REPRESENTATION ( #176, #51 ) ;
#27 = ORIENTED_EDGE ( 'NONE', *, *, #99, .F. ) ;
#28 = CARTESIAN_POINT ( 'NONE',  ( 0.000000000000000000, 0.000000000000000000, 0.000000000000000000 ) ) ;
#29 = EDGE_CURVE ( 'NONE', #204, #204, #113, .T. ) ;
#30 = DIRECTION ( 'NONE',  ( 4.275831445896957731E-31, 1.000000000000000000, 1.224646799147353207E-16 ) ) ;
#31 = AXIS2_PLACEMENT_3D ( 'NONE', #103, #197, #172 ) ;
#32 = DIRECTION ( 'NONE',  ( 0.000000000000000000, -1.000000000000000000, 0.000000000000000000 ) ) ;
#33 = EDGE_LOOP ( 'NONE', ( #135 ) ) ;
#34 = ORIENTED_EDGE ( 'NONE', *, *, #183, .F. ) ;
#35 = AXIS2_PLACEMENT_3D ( 'NONE', #175, #9, #93 ) ;
#36 = DIRECTION ( 'NONE',  ( 4.275831445896959482E-31, 1.000000000000000000, 1.224646799147353207E-16 ) ) ;
#37 = VERTEX_POINT ( 'NONE', #107 ) ;
#38 = AXIS2_PLACEMENT_3D ( 'NONE', #106, #177, #236 ) ;
#39 = APPROVAL ( #62, 'UNSPECIFIED' ) ;
#40 = CALENDAR_DATE ( 2024, 12, 7 ) ;
#41 = PERSON_AND_ORGANIZATION ( #109, #206 ) ;
#42 =( NAMED_UNIT ( * ) SI_UNIT ( $, .STERADIAN. ) SOLID_ANGLE_UNIT ( ) );
#43 = FACE_OUTER_BOUND ( 'NONE', #191, .T. ) ;
#44 = PRODUCT_DEFINITION ( 'UNKNOWN', '', #181, #158 ) ;
#45 = MANIFOLD_SOLID_BREP ( 'Corps-Déplacer/Copier1[2]', #96 ) ;
#46 = EDGE_LOOP ( 'NONE', ( #117 ) ) ;
#47 = MECHANICAL_CONTEXT ( 'NONE', #201, 'mechanical' ) ;
#48 = CARTESIAN_POINT ( 'NONE',  ( 4.189777606611760026E-14, 4.499279347985570634E-32, 12.00000000000000000 ) ) ;
#49 = EDGE_LOOP ( 'NONE', ( #11 ) ) ;
#50 = DIRECTION ( 'NONE',  ( 4.275831445896958607E-31, 1.000000000000000000, 1.224646799147353207E-16 ) ) ;
#51 = ADVANCED_BREP_SHAPE_REPRESENTATION ( '976415', ( #125, #45, #217 ), #195 ) ;
#52 = APPROVAL_PERSON_ORGANIZATION ( #61, #39, #83 ) ;
#53 = FACE_OUTER_BOUND ( 'NONE', #33, .T. ) ;
#54 = ORIENTED_EDGE ( 'NONE', *, *, #226, .F. ) ;
#55 = CARTESIAN_POINT ( 'NONE',  ( 0.000000000000000000, 0.000000000000000000, 0.000000000000000000 ) ) ;
#56 = LOCAL_TIME ( 11, 23, 18.00000000000000000, #218 ) ;
#57 = CC_DESIGN_PERSON_AND_ORGANIZATION_ASSIGNMENT ( #164, #5, ( #187 ) ) ;
#58 = FACE_OUTER_BOUND ( 'NONE', #151, .T. ) ;
#59 = ADVANCED_FACE ( 'NONE', ( #17, #200 ), #134, .T. ) ;
#60 = CC_DESIGN_APPROVAL ( #94, ( #181 ) ) ;
#61 = PERSON_AND_ORGANIZATION ( #109, #206 ) ;
#62 = APPROVAL_STATUS ( 'not_yet_approved' ) ;
#63 = DIRECTION ( 'NONE',  ( 3.491481338843133355E-15, -1.224646799147353207E-16, 1.000000000000000000 ) ) ;
#64 = EDGE_LOOP ( 'NONE', ( #221 ) ) ;
#65 = APPROVAL_DATE_TIME ( #132, #39 ) ;
#66 = DATE_AND_TIME ( #240, #147 ) ;
#67 = FACE_OUTER_BOUND ( 'NONE', #1, .T. ) ;
#68 = ADVANCED_FACE ( 'NONE', ( #22 ), #105, .T. ) ;
#69 = ORIENTED_EDGE ( 'NONE', *, *, #29, .T. ) ;
#70 = CYLINDRICAL_SURFACE ( 'NONE', #129, 6.000000000000000000 ) ;
#71 = DIRECTION ( 'NONE',  ( 4.275831445896958607E-31, 1.000000000000000000, 1.224646799147353207E-16 ) ) ;
#72 = CIRCLE ( 'NONE', #212, 5.999999999999994671 ) ;
#73 = CC_DESIGN_PERSON_AND_ORGANIZATION_ASSIGNMENT ( #110, #180, ( #181 ) ) ;
#74 = CARTESIAN_POINT ( 'NONE',  ( 4.189777606611760026E-14, 5.499999999999997335, 12.00000000000000000 ) ) ;
#75 =( LENGTH_UNIT ( ) NAMED_UNIT ( * ) SI_UNIT ( .MILLI., .METRE. ) );
#76 = DIRECTION ( 'NONE',  ( -3.491481338843133355E-15, 1.224646799147353207E-16, -1.000000000000000000 ) ) ;
#77 = CARTESIAN_POINT ( 'NONE',  ( 2.897929511239800811E-13, -1.016456843292303150E-14, 83.00000000000000000 ) ) ;
#78 = APPROVAL_STATUS ( 'not_yet_approved' ) ;
#79 = DIRECTION ( 'NONE',  ( 0.000000000000000000, 1.000000000000000000, 0.000000000000000000 ) ) ;
#80 = ADVANCED_FACE ( 'NONE', ( #58 ), #19, .F. ) ;
#81 = CALENDAR_DATE ( 2024, 12, 7 ) ;
#82 = VERTEX_POINT ( 'NONE', #182 ) ;
#83 = APPROVAL_ROLE ( '' ) ;
#84 = CARTESIAN_POINT ( 'NONE',  ( -2.565498867538175514E-30, 8.998558695971145647E-32, -7.347880794884119736E-16 ) ) ;
#85 = CC_DESIGN_SECURITY_CLASSIFICATION ( #187, ( #181 ) ) ;
#86 = PLANE ( 'NONE',  #237 ) ;
#87 = ADVANCED_FACE ( 'NONE', ( #154, #2 ), #70, .T. ) ;
#88 = DIRECTION ( 'NONE',  ( -3.491481338843133355E-15, 1.224646799147353207E-16, -1.000000000000000000 ) ) ;
#89 = UNCERTAINTY_MEASURE_WITH_UNIT (LENGTH_MEASURE( 1.000000000000000082E-05 ), #75, 'distance_accuracy_value', 'NONE');
#90 = AXIS2_PLACEMENT_3D ( 'NONE', #119, #196, #32 ) ;
#91 = ORIENTED_EDGE ( 'NONE', *, *, #183, .T. ) ;
#92 = FACE_OUTER_BOUND ( 'NONE', #64, .T. ) ;
#93 = DIRECTION ( 'NONE',  ( -4.275831445896958607E-31, -1.000000000000000000, -1.224646799147353207E-16 ) ) ;
#94 = APPROVAL ( #78, 'UNSPECIFIED' ) ;
#95 = VERTEX_POINT ( 'NONE', #157 ) ;
#96 = CLOSED_SHELL ( 'NONE', ( #68, #87, #104 ) ) ;
#97 = AXIS2_PLACEMENT_3D ( 'NONE', #171, #131, #202 ) ;
#98 = PERSON_AND_ORGANIZATION ( #109, #206 ) ;
#99 = EDGE_CURVE ( 'NONE', #160, #160, #159, .T. ) ;
#100 = AXIS2_PLACEMENT_3D ( 'NONE', #116, #194, #30 ) ;
#101 = CALENDAR_DATE ( 2024, 12, 7 ) ;
#102 = LOCAL_TIME ( 11, 23, 18.00000000000000000, #216 ) ;
#103 = CARTESIAN_POINT ( 'NONE',  ( 0.000000000000000000, 0.000000000000000000, 0.000000000000000000 ) ) ;
#104 = ADVANCED_FACE ( 'NONE', ( #220 ), #219, .T. ) ;
#105 = PLANE ( 'NONE',  #223 ) ;
#106 = CARTESIAN_POINT ( 'NONE',  ( 1.344220315454606279E-13, -4.714890176717309515E-15, 38.50000000000000000 ) ) ;
#107 = CARTESIAN_POINT ( 'NONE',  ( 2.880472104545584198E-13, 5.999999999999984901, 82.49999999999998579 ) ) ;
#108 = DIRECTION ( 'NONE',  ( -3.491481338843133355E-15, 1.224646799147353207E-16, -1.000000000000000000 ) ) ;
#109 = PERSON ( 'UNSPECIFIED', 'UNSPECIFIED', 'UNSPECIFIED', ('UNSPECIFIED'), ('UNSPECIFIED'), ('UNSPECIFIED') ) ;
#110 = PERSON_AND_ORGANIZATION ( #109, #206 ) ;
#111 = AXIS2_PLACEMENT_3D ( 'NONE', #156, #76, #211 ) ;
#112 = APPROVAL_STATUS ( 'not_yet_approved' ) ;
#113 = CIRCLE ( 'NONE', #233, 6.000000000000000000 ) ;
#114 = CYLINDRICAL_SURFACE ( 'NONE', #100, 5.500000000000000000 ) ;
#115 = EDGE_LOOP ( 'NONE', ( #54 ) ) ;
#116 = CARTESIAN_POINT ( 'NONE',  ( 0.000000000000000000, 0.000000000000000000, 0.000000000000000000 ) ) ;
#117 = ORIENTED_EDGE ( 'NONE', *, *, #99, .T. ) ;
#118 = CLOSED_SHELL ( 'NONE', ( #80, #140, #188, #12, #59, #155 ) ) ;
#119 = CARTESIAN_POINT ( 'NONE',  ( 1.326762908760390423E-13, -4.653657836759941941E-15, 38.00000000000000000 ) ) ;
#120 = CIRCLE ( 'NONE', #149, 5.500000000000000000 ) ;
#121 = CYLINDRICAL_SURFACE ( 'NONE', #31, 5.999999999999994671 ) ;
#122 = FACE_OUTER_BOUND ( 'NONE', #46, .T. ) ;
#123 = PERSON_AND_ORGANIZATION_ROLE ( 'creator' ) ;
#124 = PRODUCT_RELATED_PRODUCT_CATEGORY ( 'detail', '', ( #193 ) ) ;
#125 = MANIFOLD_SOLID_BREP ( 'Corps-Déplacer/Copier1[1]', #118 ) ;
#126 = COORDINATED_UNIVERSAL_TIME_OFFSET ( 1, 0, .AHEAD. ) ;
#127 = CC_DESIGN_DATE_AND_TIME_ASSIGNMENT ( #215, #10, ( #44 ) ) ;
#128 = COORDINATED_UNIVERSAL_TIME_OFFSET ( 1, 0, .AHEAD. ) ;
#129 = AXIS2_PLACEMENT_3D ( 'NONE', #55, #203, #36 ) ;
#130 = PERSON_AND_ORGANIZATION_ROLE ( 'design_owner' ) ;
#131 = DIRECTION ( 'NONE',  ( -3.491481338843133355E-15, 1.224646799147353207E-16, -1.000000000000000000 ) ) ;
#132 = DATE_AND_TIME ( #40, #243 ) ;
#133 =( NAMED_UNIT ( * ) PLANE_ANGLE_UNIT ( ) SI_UNIT ( $, .RADIAN. ) );
#134 = CONICAL_SURFACE ( 'NONE', #111, 5.499999999999994671, 0.7853981633974344012 ) ;
#135 = ORIENTED_EDGE ( 'NONE', *, *, #226, .T. ) ;
#136 = EDGE_LOOP ( 'NONE', ( #153 ) ) ;
#137 = EDGE_LOOP ( 'NONE', ( #69 ) ) ;
#138 = ORIENTED_EDGE ( 'NONE', *, *, #29, .F. ) ;
#139 = CIRCLE ( 'NONE', #13, 5.499999999999999112 ) ;
#140 = ADVANCED_FACE ( 'NONE', ( #235, #43 ), #114, .T. ) ;
#141 = VERTEX_POINT ( 'NONE', #228 ) ;
#142 = CARTESIAN_POINT ( 'NONE',  ( -1.282749433769087757E-30, 4.499279347985572824E-32, -3.673940397442059868E-16 ) ) ;
#143 = AXIS2_PLACEMENT_3D ( 'NONE', #77, #209, #6 ) ;
#144 = CARTESIAN_POINT ( 'NONE',  ( 0.000000000000000000, 6.000000000000000000, 0.000000000000000000 ) ) ;
#145 = CC_DESIGN_PERSON_AND_ORGANIZATION_ASSIGNMENT ( #15, #123, ( #44 ) ) ;
#146 = DATE_AND_TIME ( #81, #102 ) ;
#147 = LOCAL_TIME ( 11, 23, 18.00000000000000000, #23 ) ;
#148 = EDGE_CURVE ( 'NONE', #82, #82, #163, .T. ) ;
#149 = AXIS2_PLACEMENT_3D ( 'NONE', #241, #88, #222 ) ;
#150 = CARTESIAN_POINT ( 'NONE',  ( 2.897929511239800811E-13, 4.124339402320088716E-32, 83.00000000000000000 ) ) ;
#151 = EDGE_LOOP ( 'NONE', ( #189 ) ) ;
#152 = APPROVAL_PERSON_ORGANIZATION ( #98, #94, #213 ) ;
#153 = ORIENTED_EDGE ( 'NONE', *, *, #208, .T. ) ;
#154 = FACE_OUTER_BOUND ( 'NONE', #167, .T. ) ;
#155 = ADVANCED_FACE ( 'NONE', ( #92 ), #86, .F. ) ;
#156 = CARTESIAN_POINT ( 'NONE',  ( 2.897929511239800811E-13, -1.016456843292303150E-14, 83.00000000000000000 ) ) ;
#157 = CARTESIAN_POINT ( 'NONE',  ( 1.326762908760390423E-13, 5.499999999999995559, 38.00000000000000000 ) ) ;
#158 = DESIGN_CONTEXT ( 'detailed design', #173, 'design' ) ;
#159 = CIRCLE ( 'NONE', #38, 5.999999999999993783 ) ;
#160 = VERTEX_POINT ( 'NONE', #210 ) ;
#161 = DATE_AND_TIME ( #207, #227 ) ;
#162 = DIRECTION ( 'NONE',  ( -3.491481338843133355E-15, 1.224646799147353207E-16, -1.000000000000000000 ) ) ;
#163 = CIRCLE ( 'NONE', #97, 6.000000000000000000 ) ;
#164 = PERSON_AND_ORGANIZATION ( #109, #206 ) ;
#165 = PERSON_AND_ORGANIZATION_ROLE ( 'creator' ) ;
#166 = SECURITY_CLASSIFICATION_LEVEL ( 'unclassified' ) ;
#167 = EDGE_LOOP ( 'NONE', ( #238 ) ) ;
#168 = DIRECTION ( 'NONE',  ( 1.000000000000000000, 0.000000000000000000, 0.000000000000000000 ) ) ;
#169 = ORIENTED_EDGE ( 'NONE', *, *, #205, .F. ) ;
#170 = CONICAL_SURFACE ( 'NONE', #90, 5.500000000000000000, 0.7853981633974422838 ) ;
#171 = CARTESIAN_POINT ( 'NONE',  ( 4.189777606611760026E-14, -1.469576158976823947E-15, 12.00000000000000000 ) ) ;
#172 = DIRECTION ( 'NONE',  ( 4.275831445896958607E-31, 1.000000000000000000, 1.224646799147353207E-16 ) ) ;
#173 = APPLICATION_CONTEXT ( 'configuration controlled 3d designs of mechanical parts and assemblies' ) ;
#174 = DIRECTION ( 'NONE',  ( -3.491481338843133355E-15, 1.224646799147353207E-16, -1.000000000000000000 ) ) ;
#175 = CARTESIAN_POINT ( 'NONE',  ( 4.189777606611760026E-14, 4.124339402320105137E-32, 12.00000000000000000 ) ) ;
#176 = PRODUCT_DEFINITION_SHAPE ( 'NONE', 'NONE',  #44 ) ;
#177 = DIRECTION ( 'NONE',  ( -3.491481338843133355E-15, 1.224646799147353207E-16, -1.000000000000000000 ) ) ;
#178 = CC_DESIGN_APPROVAL ( #39, ( #187 ) ) ;
#179 = CARTESIAN_POINT ( 'NONE',  ( 2.880472104545584198E-13, -1.010333609296566392E-14, 82.49999999999998579 ) ) ;
#180 = PERSON_AND_ORGANIZATION_ROLE ( 'design_supplier' ) ;
#181 = PRODUCT_DEFINITION_FORMATION_WITH_SPECIFIED_SOURCE ( 'ANY', '', #193, .NOT_KNOWN. ) ;
#182 = CARTESIAN_POINT ( 'NONE',  ( 4.189777606611760026E-14, 5.999999999999998224, 12.00000000000000000 ) ) ;
#183 = EDGE_CURVE ( 'NONE', #95, #95, #120, .T. ) ;
#184 = DIRECTION ( 'NONE',  ( 4.275831445896959482E-31, 1.000000000000000000, 1.224646799147353207E-16 ) ) ;
#185 = APPROVAL_ROLE ( '' ) ;
#186 = DIRECTION ( 'NONE',  ( -4.275831445896958607E-31, -1.000000000000000000, -1.224646799147353207E-16 ) ) ;
#187 = SECURITY_CLASSIFICATION ( '', '', #166 ) ;
#188 = ADVANCED_FACE ( 'NONE', ( #122, #199 ), #170, .T. ) ;
#189 = ORIENTED_EDGE ( 'NONE', *, *, #205, .T. ) ;
#190 = APPROVAL ( #112, 'UNSPECIFIED' ) ;
#191 = EDGE_LOOP ( 'NONE', ( #169 ) ) ;
#192 = APPROVAL_DATE_TIME ( #66, #190 ) ;
#193 = PRODUCT ( '976415', '976415', '', ( #47 ) ) ;
#194 = DIRECTION ( 'NONE',  ( -3.491481338843133355E-15, 1.224646799147353207E-16, -1.000000000000000000 ) ) ;
#195 =( GEOMETRIC_REPRESENTATION_CONTEXT ( 3 ) GLOBAL_UNCERTAINTY_ASSIGNED_CONTEXT ( ( #89 ) ) GLOBAL_UNIT_ASSIGNED_CONTEXT ( ( #75, #133, #42 ) ) REPRESENTATION_CONTEXT ( 'NONE', 'WORKASPACE' ) );
#196 = DIRECTION ( 'NONE',  ( 3.491481338843133355E-15, -1.224646799147353207E-16, 1.000000000000000000 ) ) ;
#197 = DIRECTION ( 'NONE',  ( -3.491481338843133355E-15, 1.224646799147353207E-16, -1.000000000000000000 ) ) ;
#198 = DIRECTION ( 'NONE',  ( -3.491481338843133355E-15, 1.224646799147353207E-16, -1.000000000000000000 ) ) ;
#199 = FACE_BOUND ( 'NONE', #225, .T. ) ;
#200 = FACE_BOUND ( 'NONE', #136, .T. ) ;
#201 = APPLICATION_CONTEXT ( 'configuration controlled 3d designs of mechanical parts and assemblies' ) ;
#202 = DIRECTION ( 'NONE',  ( 0.000000000000000000, 1.000000000000000000, 0.000000000000000000 ) ) ;
#203 = DIRECTION ( 'NONE',  ( -3.491481338843133355E-15, 1.224646799147353207E-16, -1.000000000000000000 ) ) ;
#204 = VERTEX_POINT ( 'NONE', #144 ) ;
#205 = EDGE_CURVE ( 'NONE', #4, #4, #139, .T. ) ;
#206 = ORGANIZATION ( 'UNSPECIFIED', 'UNSPECIFIED', '' ) ;
#207 = CALENDAR_DATE ( 2024, 12, 7 ) ;
#208 = EDGE_CURVE ( 'NONE', #141, #141, #25, .T. ) ;
#209 = DIRECTION ( 'NONE',  ( -3.491481338843133355E-15, 1.224646799147353207E-16, -1.000000000000000000 ) ) ;
#210 = CARTESIAN_POINT ( 'NONE',  ( 1.344220315454606279E-13, 5.999999999999989342, 38.50000000000000000 ) ) ;
#211 = DIRECTION ( 'NONE',  ( 0.000000000000000000, 1.000000000000000000, 0.000000000000000000 ) ) ;
#212 = AXIS2_PLACEMENT_3D ( 'NONE', #179, #162, #79 ) ;
#213 = APPROVAL_ROLE ( '' ) ;
#214 = APPLICATION_PROTOCOL_DEFINITION ( 'international standard', 'config_control_design', 1994, #173 ) ;
#215 = DATE_AND_TIME ( #101, #56 ) ;
#216 = COORDINATED_UNIVERSAL_TIME_OFFSET ( 1, 0, .AHEAD. ) ;
#217 = AXIS2_PLACEMENT_3D ( 'NONE', #28, #24, #168 ) ;
#218 = COORDINATED_UNIVERSAL_TIME_OFFSET ( 1, 0, .AHEAD. ) ;
#219 = PLANE ( 'NONE',  #14 ) ;
#220 = FACE_OUTER_BOUND ( 'NONE', #49, .T. ) ;
#221 = ORIENTED_EDGE ( 'NONE', *, *, #208, .F. ) ;
#222 = DIRECTION ( 'NONE',  ( 0.000000000000000000, 1.000000000000000000, 0.000000000000000000 ) ) ;
#223 = AXIS2_PLACEMENT_3D ( 'NONE', #142, #3, #71 ) ;
#224 = CARTESIAN_POINT ( 'NONE',  ( 4.189777606611760026E-14, -1.469576158976823947E-15, 12.00000000000000000 ) ) ;
#225 = EDGE_LOOP ( 'NONE', ( #34 ) ) ;
#226 = EDGE_CURVE ( 'NONE', #37, #37, #72, .T. ) ;
#227 = LOCAL_TIME ( 11, 23, 18.00000000000000000, #126 ) ;
#228 = CARTESIAN_POINT ( 'NONE',  ( 2.897929511239800811E-13, 5.499999999999984013, 83.00000000000000000 ) ) ;
#229 = APPROVAL_DATE_TIME ( #161, #94 ) ;
#230 = DATE_TIME_ROLE ( 'classification_date' ) ;
#231 = CC_DESIGN_DATE_AND_TIME_ASSIGNMENT ( #146, #230, ( #187 ) ) ;
#232 = APPLICATION_PROTOCOL_DEFINITION ( 'international standard', 'config_control_design', 1994, #201 ) ;
#233 = AXIS2_PLACEMENT_3D ( 'NONE', #84, #108, #184 ) ;
#234 = PERSON_AND_ORGANIZATION ( #109, #206 ) ;
#235 = FACE_OUTER_BOUND ( 'NONE', #242, .T. ) ;
#236 = DIRECTION ( 'NONE',  ( 0.000000000000000000, 1.000000000000000000, 0.000000000000000000 ) ) ;
#237 = AXIS2_PLACEMENT_3D ( 'NONE', #150, #198, #50 ) ;
#238 = ORIENTED_EDGE ( 'NONE', *, *, #148, .T. ) ;
#239 = EDGE_LOOP ( 'NONE', ( #138 ) ) ;
#240 = CALENDAR_DATE ( 2024, 12, 7 ) ;
#241 = CARTESIAN_POINT ( 'NONE',  ( 1.326762908760390423E-13, -4.653657836759941941E-15, 38.00000000000000000 ) ) ;
#242 = EDGE_LOOP ( 'NONE', ( #91 ) ) ;
#243 = LOCAL_TIME ( 11, 23, 18.00000000000000000, #128 ) ;
ENDSEC;
END-ISO-10303-21;
