ISO-10303-21;
HEADER;
FILE_DESCRIPTION (( 'STEP AP203' ),
    '1' );
FILE_NAME ('976414.step',
    '2024-07-12T09:23:17',
    ( '' ),
    ( '' ),
    'SwSTEP 2.0',
    'SolidWorks 2022',
    '' );
FILE_SCHEMA (( 'CONFIG_CONTROL_DESIGN' ));
ENDSEC;

DATA;
#1 = CARTESIAN_POINT ( 'NONE',  ( -2.565498867538175514E-30, 8.998558695971145647E-32, -7.347880794884119736E-16 ) ) ;
#2 = CARTESIAN_POINT ( 'NONE',  ( 2.897929511239800811E-13, 5.499999999999984013, 83.00000000000000000 ) ) ;
#3 = CARTESIAN_POINT ( 'NONE',  ( 7.157536744628422747E-14, -2.510525938252074087E-15, 20.49999999999999645 ) ) ;
#4 = MANIFOLD_SOLID_BREP ( 'Corps-Déplacer/Copier1[2]', #60 ) ;
#5 = COORDINATED_UNIVERSAL_TIME_OFFSET ( 1, 0, .AHEAD. ) ;
#6 = APPROVAL_ROLE ( '' ) ;
#7 = ADVANCED_FACE ( 'NONE', ( #44 ), #29, .T. ) ;
#8 = SECURITY_CLASSIFICATION_LEVEL ( 'unclassified' ) ;
#9 = ORIENTED_EDGE ( 'NONE', *, *, #237, .T. ) ;
#10 = CIRCLE ( 'NONE', #204, 6.000000000000000000 ) ;
#11 = EDGE_LOOP ( 'NONE', ( #178 ) ) ;
#12 = DIRECTION ( 'NONE',  ( -3.491481338843133355E-15, 1.224646799147353207E-16, -1.000000000000000000 ) ) ;
#13 = PLANE ( 'NONE',  #110 ) ;
#14 = LOCAL_TIME ( 11, 23, 17.00000000000000000, #5 ) ;
#15 = CYLINDRICAL_SURFACE ( 'NONE', #47, 5.500000000000000000 ) ;
#16 = CARTESIAN_POINT ( 'NONE',  ( 0.000000000000000000, 0.000000000000000000, 0.000000000000000000 ) ) ;
#17 = CARTESIAN_POINT ( 'NONE',  ( 6.982962677686266711E-14, -2.449293598294706513E-15, 20.00000000000000000 ) ) ;
#18 = APPROVAL_PERSON_ORGANIZATION ( #201, #71, #68 ) ;
#19 =( LENGTH_UNIT ( ) NAMED_UNIT ( * ) SI_UNIT ( .MILLI., .METRE. ) );
#20 = CARTESIAN_POINT ( 'NONE',  ( 2.880472104545584198E-13, 5.999999999999984901, 82.49999999999998579 ) ) ;
#21 =( NAMED_UNIT ( * ) SI_UNIT ( $, .STERADIAN. ) SOLID_ANGLE_UNIT ( ) );
#22 = CC_DESIGN_PERSON_AND_ORGANIZATION_ASSIGNMENT ( #218, #117, ( #167 ) ) ;
#23 =( GEOMETRIC_REPRESENTATION_CONTEXT ( 3 ) GLOBAL_UNCERTAINTY_ASSIGNED_CONTEXT ( ( #38 ) ) GLOBAL_UNIT_ASSIGNED_CONTEXT ( ( #19, #76, #21 ) ) REPRESENTATION_CONTEXT ( 'NONE', 'WORKASPACE' ) );
#24 = CIRCLE ( 'NONE', #70, 5.499999999999994671 ) ;
#25 = CARTESIAN_POINT ( 'NONE',  ( 3.491481338843132724E-14, 5.999999999999999112, 9.999999999999998224 ) ) ;
#26 = DATE_TIME_ROLE ( 'classification_date' ) ;
#27 = CC_DESIGN_PERSON_AND_ORGANIZATION_ASSIGNMENT ( #104, #28, ( #180 ) ) ;
#28 = PERSON_AND_ORGANIZATION_ROLE ( 'creator' ) ;
#29 = PLANE ( 'NONE',  #225 ) ;
#30 = DATE_AND_TIME ( #46, #101 ) ;
#31 = ORIENTED_EDGE ( 'NONE', *, *, #239, .T. ) ;
#32 = PLANE ( 'NONE',  #217 ) ;
#33 = DIRECTION ( 'NONE',  ( 3.491481338843133355E-15, -1.224646799147353207E-16, 1.000000000000000000 ) ) ;
#34 = CARTESIAN_POINT ( 'NONE',  ( 2.897929511239800811E-13, 4.124339402320088716E-32, 83.00000000000000000 ) ) ;
#35 = DIRECTION ( 'NONE',  ( -3.491481338843133355E-15, 1.224646799147353207E-16, -1.000000000000000000 ) ) ;
#36 = VERTEX_POINT ( 'NONE', #25 ) ;
#37 = DIRECTION ( 'NONE',  ( 1.000000000000000000, 0.000000000000000000, 0.000000000000000000 ) ) ;
#38 = UNCERTAINTY_MEASURE_WITH_UNIT (LENGTH_MEASURE( 1.000000000000000082E-05 ), #19, 'distance_accuracy_value', 'NONE');
#39 = APPROVAL_PERSON_ORGANIZATION ( #83, #132, #6 ) ;
#40 = DIRECTION ( 'NONE',  ( -3.491481338843133355E-15, 1.224646799147353207E-16, -1.000000000000000000 ) ) ;
#41 = CARTESIAN_POINT ( 'NONE',  ( 6.982962677686266711E-14, 5.499999999999997335, 20.00000000000000000 ) ) ;
#42 = AXIS2_PLACEMENT_3D ( 'NONE', #197, #12, #140 ) ;
#43 = SHAPE_DEFINITION_REPRESENTATION ( #235, #230 ) ;
#44 = FACE_OUTER_BOUND ( 'NONE', #159, .T. ) ;
#45 = LOCAL_TIME ( 11, 23, 17.00000000000000000, #119 ) ;
#46 = CALENDAR_DATE ( 2024, 12, 7 ) ;
#47 = AXIS2_PLACEMENT_3D ( 'NONE', #16, #221, #124 ) ;
#48 = EDGE_LOOP ( 'NONE', ( #9 ) ) ;
#49 = COORDINATED_UNIVERSAL_TIME_OFFSET ( 1, 0, .AHEAD. ) ;
#50 = EDGE_CURVE ( 'NONE', #77, #77, #145, .T. ) ;
#51 = AXIS2_PLACEMENT_3D ( 'NONE', #57, #203, #58 ) ;
#52 = CALENDAR_DATE ( 2024, 12, 7 ) ;
#53 = EDGE_LOOP ( 'NONE', ( #138 ) ) ;
#54 = EDGE_LOOP ( 'NONE', ( #154 ) ) ;
#55 = FACE_OUTER_BOUND ( 'NONE', #240, .T. ) ;
#56 = FACE_OUTER_BOUND ( 'NONE', #120, .T. ) ;
#57 = CARTESIAN_POINT ( 'NONE',  ( 0.000000000000000000, 0.000000000000000000, 0.000000000000000000 ) ) ;
#58 = DIRECTION ( 'NONE',  ( 4.275831445896959482E-31, 1.000000000000000000, 1.224646799147353207E-16 ) ) ;
#59 = CARTESIAN_POINT ( 'NONE',  ( 0.000000000000000000, 0.000000000000000000, 0.000000000000000000 ) ) ;
#60 = CLOSED_SHELL ( 'NONE', ( #7, #100, #157 ) ) ;
#61 = VERTEX_POINT ( 'NONE', #2 ) ;
#62 = DIRECTION ( 'NONE',  ( 4.275831445896959482E-31, 1.000000000000000000, 1.224646799147353207E-16 ) ) ;
#63 = VERTEX_POINT ( 'NONE', #41 ) ;
#64 = PERSON_AND_ORGANIZATION ( #226, #98 ) ;
#65 = PERSON_AND_ORGANIZATION ( #226, #98 ) ;
#66 = ORIENTED_EDGE ( 'NONE', *, *, #97, .T. ) ;
#67 = ORIENTED_EDGE ( 'NONE', *, *, #50, .F. ) ;
#68 = APPROVAL_ROLE ( '' ) ;
#69 = EDGE_LOOP ( 'NONE', ( #136 ) ) ;
#70 = AXIS2_PLACEMENT_3D ( 'NONE', #205, #35, #188 ) ;
#71 = APPROVAL ( #102, 'UNSPECIFIED' ) ;
#72 = ADVANCED_FACE ( 'NONE', ( #219, #55 ), #125, .T. ) ;
#73 = DIRECTION ( 'NONE',  ( -4.275831445896958607E-31, -1.000000000000000000, -1.224646799147353207E-16 ) ) ;
#74 = CC_DESIGN_APPROVAL ( #147, ( #167 ) ) ;
#75 = FACE_OUTER_BOUND ( 'NONE', #11, .T. ) ;
#76 =( NAMED_UNIT ( * ) PLANE_ANGLE_UNIT ( ) SI_UNIT ( $, .RADIAN. ) );
#77 = VERTEX_POINT ( 'NONE', #229 ) ;
#78 = APPROVAL_PERSON_ORGANIZATION ( #64, #147, #90 ) ;
#79 = APPLICATION_PROTOCOL_DEFINITION ( 'international standard', 'config_control_design', 1994, #161 ) ;
#80 = PERSON_AND_ORGANIZATION ( #226, #98 ) ;
#81 = APPLICATION_CONTEXT ( 'configuration controlled 3d designs of mechanical parts and assemblies' ) ;
#82 = CARTESIAN_POINT ( 'NONE',  ( 2.897929511239800811E-13, -1.016456843292303150E-14, 83.00000000000000000 ) ) ;
#83 = PERSON_AND_ORGANIZATION ( #226, #98 ) ;
#84 = EDGE_LOOP ( 'NONE', ( #176 ) ) ;
#85 = APPROVAL_DATE_TIME ( #238, #132 ) ;
#86 = EDGE_LOOP ( 'NONE', ( #66 ) ) ;
#87 = CC_DESIGN_PERSON_AND_ORGANIZATION_ASSIGNMENT ( #65, #196, ( #182 ) ) ;
#88 = CALENDAR_DATE ( 2024, 12, 7 ) ;
#89 = LOCAL_TIME ( 11, 23, 17.00000000000000000, #193 ) ;
#90 = APPROVAL_ROLE ( '' ) ;
#91 = ORIENTED_EDGE ( 'NONE', *, *, #174, .F. ) ;
#92 = EDGE_LOOP ( 'NONE', ( #105 ) ) ;
#93 = LOCAL_TIME ( 11, 23, 17.00000000000000000, #49 ) ;
#94 = FACE_OUTER_BOUND ( 'NONE', #131, .T. ) ;
#95 = MANIFOLD_SOLID_BREP ( 'Corps-Déplacer/Copier1[1]', #160 ) ;
#96 = FACE_BOUND ( 'NONE', #152, .T. ) ;
#97 = EDGE_CURVE ( 'NONE', #63, #63, #179, .T. ) ;
#98 = ORGANIZATION ( 'UNSPECIFIED', 'UNSPECIFIED', '' ) ;
#99 = CARTESIAN_POINT ( 'NONE',  ( 7.157536744628422747E-14, 5.999999999999989342, 20.49999999999999645 ) ) ;
#100 = ADVANCED_FACE ( 'NONE', ( #56, #181 ), #107, .T. ) ;
#101 = LOCAL_TIME ( 11, 23, 17.00000000000000000, #133 ) ;
#102 = APPROVAL_STATUS ( 'not_yet_approved' ) ;
#103 = PRODUCT ( '976414', '976414', '', ( #114 ) ) ;
#104 = PERSON_AND_ORGANIZATION ( #226, #98 ) ;
#105 = ORIENTED_EDGE ( 'NONE', *, *, #50, .T. ) ;
#106 = DIRECTION ( 'NONE',  ( -3.491481338843133355E-15, 1.224646799147353207E-16, -1.000000000000000000 ) ) ;
#107 = CYLINDRICAL_SURFACE ( 'NONE', #51, 6.000000000000000000 ) ;
#108 = CC_DESIGN_PERSON_AND_ORGANIZATION_ASSIGNMENT ( #153, #173, ( #182 ) ) ;
#109 = FACE_OUTER_BOUND ( 'NONE', #48, .T. ) ;
#110 = AXIS2_PLACEMENT_3D ( 'NONE', #34, #224, #241 ) ;
#111 = CARTESIAN_POINT ( 'NONE',  ( 3.491481338843132724E-14, 4.499279347985571729E-32, 9.999999999999998224 ) ) ;
#112 = DIRECTION ( 'NONE',  ( 0.000000000000000000, 1.000000000000000000, 0.000000000000000000 ) ) ;
#113 = EDGE_CURVE ( 'NONE', #232, #232, #149, .T. ) ;
#114 = MECHANICAL_CONTEXT ( 'NONE', #161, 'mechanical' ) ;
#115 = ADVANCED_FACE ( 'NONE', ( #223 ), #32, .F. ) ;
#116 = DESIGN_CONTEXT ( 'detailed design', #81, 'design' ) ;
#117 = PERSON_AND_ORGANIZATION_ROLE ( 'classification_officer' ) ;
#118 = CC_DESIGN_DATE_AND_TIME_ASSIGNMENT ( #171, #212, ( #180 ) ) ;
#119 = COORDINATED_UNIVERSAL_TIME_OFFSET ( 1, 0, .AHEAD. ) ;
#120 = EDGE_LOOP ( 'NONE', ( #215 ) ) ;
#121 = AXIS2_PLACEMENT_3D ( 'NONE', #17, #106, #202 ) ;
#122 = APPLICATION_PROTOCOL_DEFINITION ( 'international standard', 'config_control_design', 1994, #81 ) ;
#123 = DIRECTION ( 'NONE',  ( 4.275831445896958607E-31, 1.000000000000000000, 1.224646799147353207E-16 ) ) ;
#124 = DIRECTION ( 'NONE',  ( 4.275831445896957731E-31, 1.000000000000000000, 1.224646799147353207E-16 ) ) ;
#125 = CYLINDRICAL_SURFACE ( 'NONE', #231, 5.999999999999992895 ) ;
#126 = DIRECTION ( 'NONE',  ( -3.491481338843133355E-15, 1.224646799147353207E-16, -1.000000000000000000 ) ) ;
#127 = ADVANCED_FACE ( 'NONE', ( #94 ), #13, .F. ) ;
#128 = VERTEX_POINT ( 'NONE', #99 ) ;
#129 = DIRECTION ( 'NONE',  ( 0.000000000000000000, 1.000000000000000000, 0.000000000000000000 ) ) ;
#130 = APPROVAL_DATE_TIME ( #30, #147 ) ;
#131 = EDGE_LOOP ( 'NONE', ( #91 ) ) ;
#132 = APPROVAL ( #175, 'UNSPECIFIED' ) ;
#133 = COORDINATED_UNIVERSAL_TIME_OFFSET ( 1, 0, .AHEAD. ) ;
#134 = ORIENTED_EDGE ( 'NONE', *, *, #97, .F. ) ;
#135 = CIRCLE ( 'NONE', #195, 5.999999999999992006 ) ;
#136 = ORIENTED_EDGE ( 'NONE', *, *, #174, .T. ) ;
#137 = CALENDAR_DATE ( 2024, 12, 7 ) ;
#138 = ORIENTED_EDGE ( 'NONE', *, *, #210, .F. ) ;
#139 = AXIS2_PLACEMENT_3D ( 'NONE', #111, #185, #164 ) ;
#140 = DIRECTION ( 'NONE',  ( 0.000000000000000000, 1.000000000000000000, 0.000000000000000000 ) ) ;
#141 = FACE_OUTER_BOUND ( 'NONE', #53, .T. ) ;
#142 = CARTESIAN_POINT ( 'NONE',  ( 2.880472104545584198E-13, -1.010333609296566392E-14, 82.49999999999998579 ) ) ;
#143 = DIRECTION ( 'NONE',  ( 3.491481338843133355E-15, -1.224646799147353207E-16, 1.000000000000000000 ) ) ;
#144 = FACE_BOUND ( 'NONE', #69, .T. ) ;
#145 = CIRCLE ( 'NONE', #42, 5.499999999999999112 ) ;
#146 = CC_DESIGN_APPROVAL ( #132, ( #182 ) ) ;
#147 = APPROVAL ( #236, 'UNSPECIFIED' ) ;
#148 = CARTESIAN_POINT ( 'NONE',  ( 0.000000000000000000, 0.000000000000000000, 0.000000000000000000 ) ) ;
#149 = CIRCLE ( 'NONE', #187, 5.999999999999994671 ) ;
#150 = CONICAL_SURFACE ( 'NONE', #222, 5.499999999999994671, 0.7853981633974344012 ) ;
#151 = PERSON_AND_ORGANIZATION_ROLE ( 'design_owner' ) ;
#152 = EDGE_LOOP ( 'NONE', ( #134 ) ) ;
#153 = PERSON_AND_ORGANIZATION ( #226, #98 ) ;
#154 = ORIENTED_EDGE ( 'NONE', *, *, #237, .F. ) ;
#155 = CC_DESIGN_APPROVAL ( #71, ( #180 ) ) ;
#156 = CONICAL_SURFACE ( 'NONE', #183, 5.500000000000000000, 0.7853981633974439491 ) ;
#157 = ADVANCED_FACE ( 'NONE', ( #141 ), #184, .T. ) ;
#158 = CARTESIAN_POINT ( 'NONE',  ( -1.282749433769087757E-30, 4.499279347985572824E-32, -3.673940397442059868E-16 ) ) ;
#159 = EDGE_LOOP ( 'NONE', ( #31 ) ) ;
#160 = CLOSED_SHELL ( 'NONE', ( #115, #163, #166, #72, #186, #127 ) ) ;
#161 = APPLICATION_CONTEXT ( 'configuration controlled 3d designs of mechanical parts and assemblies' ) ;
#162 = CARTESIAN_POINT ( 'NONE',  ( 3.491481338843132724E-14, 4.124339402320106232E-32, 9.999999999999998224 ) ) ;
#163 = ADVANCED_FACE ( 'NONE', ( #220, #168 ), #15, .T. ) ;
#164 = DIRECTION ( 'NONE',  ( -4.275831445896958607E-31, -1.000000000000000000, -1.224646799147353207E-16 ) ) ;
#165 = DIRECTION ( 'NONE',  ( -3.491481338843133355E-15, 1.224646799147353207E-16, -1.000000000000000000 ) ) ;
#166 = ADVANCED_FACE ( 'NONE', ( #109, #96 ), #156, .T. ) ;
#167 = SECURITY_CLASSIFICATION ( '', '', #8 ) ;
#168 = FACE_OUTER_BOUND ( 'NONE', #200, .T. ) ;
#169 = DIRECTION ( 'NONE',  ( 0.000000000000000000, 0.000000000000000000, 1.000000000000000000 ) ) ;
#170 = DATE_AND_TIME ( #137, #93 ) ;
#171 = DATE_AND_TIME ( #88, #14 ) ;
#172 = DIRECTION ( 'NONE',  ( -3.491481338843133355E-15, 1.224646799147353207E-16, -1.000000000000000000 ) ) ;
#173 = PERSON_AND_ORGANIZATION_ROLE ( 'creator' ) ;
#174 = EDGE_CURVE ( 'NONE', #61, #61, #24, .T. ) ;
#175 = APPROVAL_STATUS ( 'not_yet_approved' ) ;
#176 = ORIENTED_EDGE ( 'NONE', *, *, #239, .F. ) ;
#177 = CIRCLE ( 'NONE', #189, 6.000000000000000000 ) ;
#178 = ORIENTED_EDGE ( 'NONE', *, *, #113, .F. ) ;
#179 = CIRCLE ( 'NONE', #121, 5.500000000000000000 ) ;
#180 = PRODUCT_DEFINITION ( 'UNKNOWN', '', #182, #116 ) ;
#181 = FACE_OUTER_BOUND ( 'NONE', #84, .T. ) ;
#182 = PRODUCT_DEFINITION_FORMATION_WITH_SPECIFIED_SOURCE ( 'ANY', '', #103, .NOT_KNOWN. ) ;
#183 = AXIS2_PLACEMENT_3D ( 'NONE', #242, #143, #243 ) ;
#184 = PLANE ( 'NONE',  #139 ) ;
#185 = DIRECTION ( 'NONE',  ( 3.491481338843133355E-15, -1.224646799147353207E-16, 1.000000000000000000 ) ) ;
#186 = ADVANCED_FACE ( 'NONE', ( #75, #144 ), #150, .T. ) ;
#187 = AXIS2_PLACEMENT_3D ( 'NONE', #142, #206, #112 ) ;
#188 = DIRECTION ( 'NONE',  ( 0.000000000000000000, 1.000000000000000000, 0.000000000000000000 ) ) ;
#189 = AXIS2_PLACEMENT_3D ( 'NONE', #207, #233, #208 ) ;
#190 = CARTESIAN_POINT ( 'NONE',  ( 0.000000000000000000, 6.000000000000000000, 0.000000000000000000 ) ) ;
#191 = DIRECTION ( 'NONE',  ( -3.491481338843133355E-15, 1.224646799147353207E-16, -1.000000000000000000 ) ) ;
#192 = DIRECTION ( 'NONE',  ( 0.000000000000000000, 1.000000000000000000, 0.000000000000000000 ) ) ;
#193 = COORDINATED_UNIVERSAL_TIME_OFFSET ( 1, 0, .AHEAD. ) ;
#194 = ORIENTED_EDGE ( 'NONE', *, *, #113, .T. ) ;
#195 = AXIS2_PLACEMENT_3D ( 'NONE', #3, #126, #192 ) ;
#196 = PERSON_AND_ORGANIZATION_ROLE ( 'design_supplier' ) ;
#197 = CARTESIAN_POINT ( 'NONE',  ( 3.491481338843132724E-14, -1.224646799147353059E-15, 9.999999999999998224 ) ) ;
#198 = PRODUCT_RELATED_PRODUCT_CATEGORY ( 'detail', '', ( #103 ) ) ;
#199 = APPROVAL_DATE_TIME ( #170, #71 ) ;
#200 = EDGE_LOOP ( 'NONE', ( #67 ) ) ;
#201 = PERSON_AND_ORGANIZATION ( #226, #98 ) ;
#202 = DIRECTION ( 'NONE',  ( 0.000000000000000000, 1.000000000000000000, 0.000000000000000000 ) ) ;
#203 = DIRECTION ( 'NONE',  ( -3.491481338843133355E-15, 1.224646799147353207E-16, -1.000000000000000000 ) ) ;
#204 = AXIS2_PLACEMENT_3D ( 'NONE', #1, #40, #62 ) ;
#205 = CARTESIAN_POINT ( 'NONE',  ( 2.897929511239800811E-13, -1.016456843292303150E-14, 83.00000000000000000 ) ) ;
#206 = DIRECTION ( 'NONE',  ( -3.491481338843133355E-15, 1.224646799147353207E-16, -1.000000000000000000 ) ) ;
#207 = CARTESIAN_POINT ( 'NONE',  ( 3.491481338843132724E-14, -1.224646799147353059E-15, 9.999999999999998224 ) ) ;
#208 = DIRECTION ( 'NONE',  ( 0.000000000000000000, 1.000000000000000000, 0.000000000000000000 ) ) ;
#209 = CC_DESIGN_SECURITY_CLASSIFICATION ( #167, ( #182 ) ) ;
#210 = EDGE_CURVE ( 'NONE', #36, #36, #177, .T. ) ;
#211 = VERTEX_POINT ( 'NONE', #190 ) ;
#212 = DATE_TIME_ROLE ( 'creation_date' ) ;
#213 = CALENDAR_DATE ( 2024, 12, 7 ) ;
#214 = CC_DESIGN_DATE_AND_TIME_ASSIGNMENT ( #234, #26, ( #167 ) ) ;
#215 = ORIENTED_EDGE ( 'NONE', *, *, #210, .T. ) ;
#216 = DIRECTION ( 'NONE',  ( 4.275831445896958607E-31, 1.000000000000000000, 1.224646799147353207E-16 ) ) ;
#217 = AXIS2_PLACEMENT_3D ( 'NONE', #162, #33, #73 ) ;
#218 = PERSON_AND_ORGANIZATION ( #226, #98 ) ;
#219 = FACE_OUTER_BOUND ( 'NONE', #54, .T. ) ;
#220 = FACE_OUTER_BOUND ( 'NONE', #86, .T. ) ;
#221 = DIRECTION ( 'NONE',  ( -3.491481338843133355E-15, 1.224646799147353207E-16, -1.000000000000000000 ) ) ;
#222 = AXIS2_PLACEMENT_3D ( 'NONE', #82, #191, #129 ) ;
#223 = FACE_OUTER_BOUND ( 'NONE', #92, .T. ) ;
#224 = DIRECTION ( 'NONE',  ( -3.491481338843133355E-15, 1.224646799147353207E-16, -1.000000000000000000 ) ) ;
#225 = AXIS2_PLACEMENT_3D ( 'NONE', #158, #172, #216 ) ;
#226 = PERSON ( 'UNSPECIFIED', 'UNSPECIFIED', 'UNSPECIFIED', ('UNSPECIFIED'), ('UNSPECIFIED'), ('UNSPECIFIED') ) ;
#227 = CC_DESIGN_PERSON_AND_ORGANIZATION_ASSIGNMENT ( #80, #151, ( #103 ) ) ;
#228 = AXIS2_PLACEMENT_3D ( 'NONE', #148, #169, #37 ) ;
#229 = CARTESIAN_POINT ( 'NONE',  ( 3.491481338843132724E-14, 5.499999999999998224, 9.999999999999998224 ) ) ;
#230 = ADVANCED_BREP_SHAPE_REPRESENTATION ( '976414', ( #95, #4, #228 ), #23 ) ;
#231 = AXIS2_PLACEMENT_3D ( 'NONE', #59, #165, #123 ) ;
#232 = VERTEX_POINT ( 'NONE', #20 ) ;
#233 = DIRECTION ( 'NONE',  ( -3.491481338843133355E-15, 1.224646799147353207E-16, -1.000000000000000000 ) ) ;
#234 = DATE_AND_TIME ( #52, #89 ) ;
#235 = PRODUCT_DEFINITION_SHAPE ( 'NONE', 'NONE',  #180 ) ;
#236 = APPROVAL_STATUS ( 'not_yet_approved' ) ;
#237 = EDGE_CURVE ( 'NONE', #128, #128, #135, .T. ) ;
#238 = DATE_AND_TIME ( #213, #45 ) ;
#239 = EDGE_CURVE ( 'NONE', #211, #211, #10, .T. ) ;
#240 = EDGE_LOOP ( 'NONE', ( #194 ) ) ;
#241 = DIRECTION ( 'NONE',  ( 4.275831445896958607E-31, 1.000000000000000000, 1.224646799147353207E-16 ) ) ;
#242 = CARTESIAN_POINT ( 'NONE',  ( 6.982962677686266711E-14, -2.449293598294706513E-15, 20.00000000000000000 ) ) ;
#243 = DIRECTION ( 'NONE',  ( 0.000000000000000000, -1.000000000000000000, 0.000000000000000000 ) ) ;
ENDSEC;
END-ISO-10303-21;
