ISO-10303-21;
HEADER;
FILE_DESCRIPTION (( 'STEP AP203' ),
    '1' );
FILE_NAME ('976413.step',
    '2024-07-12T09:23:17',
    ( '' ),
    ( '' ),
    'SwSTEP 2.0',
    'SolidWorks 2022',
    '' );
FILE_SCHEMA (( 'CONFIG_CONTROL_DESIGN' ));
ENDSEC;

DATA;
#1 = VERTEX_POINT ( 'NONE', #114 ) ;
#2 = VERTEX_POINT ( 'NONE', #3 ) ;
#3 = CARTESIAN_POINT ( 'NONE',  ( 2.880472104545584198E-13, 5.999999999999984901, 82.49999999999998579 ) ) ;
#4 = MECHANICAL_CONTEXT ( 'NONE', #159, 'mechanical' ) ;
#5 = PERSON_AND_ORGANIZATION_ROLE ( 'classification_officer' ) ;
#6 =( GEOMETRIC_REPRESENTATION_CONTEXT ( 3 ) GLOBAL_UNCERTAINTY_ASSIGNED_CONTEXT ( ( #116 ) ) GLOBAL_UNIT_ASSIGNED_CONTEXT ( ( #58, #77, #230 ) ) REPRESENTATION_CONTEXT ( 'NONE', 'WORKASPACE' ) );
#7 = CC_DESIGN_PERSON_AND_ORGANIZATION_ASSIGNMENT ( #174, #5, ( #156 ) ) ;
#8 = EDGE_LOOP ( 'NONE', ( #152 ) ) ;
#9 = EDGE_CURVE ( 'NONE', #221, #221, #184, .T. ) ;
#10 = MANIFOLD_SOLID_BREP ( 'Corps-Déplacer/Copier1[2]', #195 ) ;
#11 = DIRECTION ( 'NONE',  ( 4.275831445896957731E-31, 1.000000000000000000, 1.224646799147353207E-16 ) ) ;
#12 = DIRECTION ( 'NONE',  ( -3.491481338843133355E-15, 1.224646799147353207E-16, -1.000000000000000000 ) ) ;
#13 = AXIS2_PLACEMENT_3D ( 'NONE', #101, #196, #237 ) ;
#14 = FACE_OUTER_BOUND ( 'NONE', #177, .T. ) ;
#15 = CARTESIAN_POINT ( 'NONE',  ( 1.361677722148822387E-13, -4.776122516674678667E-15, 39.00000000000000711 ) ) ;
#16 = AXIS2_PLACEMENT_3D ( 'NONE', #158, #12, #238 ) ;
#17 = PLANE ( 'NONE',  #165 ) ;
#18 = CYLINDRICAL_SURFACE ( 'NONE', #217, 5.500000000000000000 ) ;
#19 = AXIS2_PLACEMENT_3D ( 'NONE', #120, #157, #64 ) ;
#20 = CALENDAR_DATE ( 2024, 12, 7 ) ;
#21 = APPROVAL_PERSON_ORGANIZATION ( #115, #194, #228 ) ;
#22 = APPROVAL_ROLE ( '' ) ;
#23 = AXIS2_PLACEMENT_3D ( 'NONE', #216, #124, #239 ) ;
#24 = DATE_AND_TIME ( #20, #169 ) ;
#25 = DESIGN_CONTEXT ( 'detailed design', #130, 'design' ) ;
#26 = APPROVAL ( #149, 'UNSPECIFIED' ) ;
#27 = ORIENTED_EDGE ( 'NONE', *, *, #9, .T. ) ;
#28 = FACE_OUTER_BOUND ( 'NONE', #133, .T. ) ;
#29 = EDGE_LOOP ( 'NONE', ( #86 ) ) ;
#30 = DIRECTION ( 'NONE',  ( 0.000000000000000000, 1.000000000000000000, 0.000000000000000000 ) ) ;
#31 = APPROVAL_PERSON_ORGANIZATION ( #79, #26, #22 ) ;
#32 = ORIENTED_EDGE ( 'NONE', *, *, #89, .F. ) ;
#33 = PLANE ( 'NONE',  #102 ) ;
#34 = CARTESIAN_POINT ( 'NONE',  ( 0.000000000000000000, 0.000000000000000000, 0.000000000000000000 ) ) ;
#35 = AXIS2_PLACEMENT_3D ( 'NONE', #160, #243, #142 ) ;
#36 = FACE_OUTER_BOUND ( 'NONE', #117, .T. ) ;
#37 = CC_DESIGN_PERSON_AND_ORGANIZATION_ASSIGNMENT ( #129, #205, ( #66 ) ) ;
#38 = DIRECTION ( 'NONE',  ( -3.491481338843133355E-15, 1.224646799147353207E-16, -1.000000000000000000 ) ) ;
#39 = CALENDAR_DATE ( 2024, 12, 7 ) ;
#40 = APPROVAL_DATE_TIME ( #167, #26 ) ;
#41 = CC_DESIGN_SECURITY_CLASSIFICATION ( #156, ( #176 ) ) ;
#42 = CONICAL_SURFACE ( 'NONE', #23, 4.999999999999999112, 0.7853981633974422838 ) ;
#43 = PERSON_AND_ORGANIZATION_ROLE ( 'design_supplier' ) ;
#44 = ADVANCED_FACE ( 'NONE', ( #28, #14 ), #83, .T. ) ;
#45 = EDGE_LOOP ( 'NONE', ( #27 ) ) ;
#46 = CARTESIAN_POINT ( 'NONE',  ( 1.326762908760390423E-13, -4.653657836759941941E-15, 38.00000000000000000 ) ) ;
#47 = ORIENTED_EDGE ( 'NONE', *, *, #89, .T. ) ;
#48 = APPROVAL_ROLE ( '' ) ;
#49 = ORIENTED_EDGE ( 'NONE', *, *, #9, .F. ) ;
#50 = AXIS2_PLACEMENT_3D ( 'NONE', #155, #232, #211 ) ;
#51 = FACE_OUTER_BOUND ( 'NONE', #212, .T. ) ;
#52 = ADVANCED_FACE ( 'NONE', ( #135 ), #63, .T. ) ;
#53 = DIRECTION ( 'NONE',  ( -4.275831445896958607E-31, -1.000000000000000000, -1.224646799147353207E-16 ) ) ;
#54 = DIRECTION ( 'NONE',  ( 0.000000000000000000, 1.000000000000000000, 0.000000000000000000 ) ) ;
#55 = LOCAL_TIME ( 11, 23, 17.00000000000000000, #148 ) ;
#56 = CYLINDRICAL_SURFACE ( 'NONE', #35, 4.999999999999999112 ) ;
#57 = CARTESIAN_POINT ( 'NONE',  ( 4.189777606611760026E-14, 4.999999999999996447, 12.00000000000000000 ) ) ;
#58 =( LENGTH_UNIT ( ) NAMED_UNIT ( * ) SI_UNIT ( .MILLI., .METRE. ) );
#59 = DATE_TIME_ROLE ( 'classification_date' ) ;
#60 = APPLICATION_PROTOCOL_DEFINITION ( 'international standard', 'config_control_design', 1994, #130 ) ;
#61 = EDGE_CURVE ( 'NONE', #224, #224, #202, .T. ) ;
#62 = SHAPE_DEFINITION_REPRESENTATION ( #154, #220 ) ;
#63 = PLANE ( 'NONE',  #50 ) ;
#64 = DIRECTION ( 'NONE',  ( 0.000000000000000000, 1.000000000000000000, 0.000000000000000000 ) ) ;
#65 = CARTESIAN_POINT ( 'NONE',  ( -2.351707295243326971E-30, 8.248678804640216843E-32, -6.735557395310442023E-16 ) ) ;
#66 = PRODUCT_DEFINITION ( 'UNKNOWN', '', #176, #25 ) ;
#67 = FACE_BOUND ( 'NONE', #121, .T. ) ;
#68 = CONICAL_SURFACE ( 'NONE', #147, 5.499999999999994671, 0.7853981633974344012 ) ;
#69 = APPROVAL ( #94, 'UNSPECIFIED' ) ;
#70 = EDGE_CURVE ( 'NONE', #203, #203, #76, .T. ) ;
#71 = DIRECTION ( 'NONE',  ( 4.275831445896958607E-31, 1.000000000000000000, 1.224646799147353207E-16 ) ) ;
#72 = AXIS2_PLACEMENT_3D ( 'NONE', #65, #178, #11 ) ;
#73 = VERTEX_POINT ( 'NONE', #143 ) ;
#74 = PRODUCT ( '976413', '976413', '', ( #4 ) ) ;
#75 = PERSON_AND_ORGANIZATION_ROLE ( 'design_owner' ) ;
#76 = CIRCLE ( 'NONE', #72, 5.500000000000000000 ) ;
#77 =( NAMED_UNIT ( * ) PLANE_ANGLE_UNIT ( ) SI_UNIT ( $, .RADIAN. ) );
#78 = CC_DESIGN_DATE_AND_TIME_ASSIGNMENT ( #191, #146, ( #66 ) ) ;
#79 = PERSON_AND_ORGANIZATION ( #192, #188 ) ;
#80 = CALENDAR_DATE ( 2024, 12, 7 ) ;
#81 = LOCAL_TIME ( 11, 23, 17.00000000000000000, #208 ) ;
#82 = EDGE_LOOP ( 'NONE', ( #234 ) ) ;
#83 = CYLINDRICAL_SURFACE ( 'NONE', #13, 5.999999999999994671 ) ;
#84 = EDGE_LOOP ( 'NONE', ( #182 ) ) ;
#85 = CIRCLE ( 'NONE', #16, 5.500000000000000000 ) ;
#86 = ORIENTED_EDGE ( 'NONE', *, *, #87, .T. ) ;
#87 = EDGE_CURVE ( 'NONE', #73, #73, #85, .T. ) ;
#88 = ORIENTED_EDGE ( 'NONE', *, *, #126, .F. ) ;
#89 = EDGE_CURVE ( 'NONE', #225, #225, #123, .T. ) ;
#90 = AXIS2_PLACEMENT_3D ( 'NONE', #119, #98, #30 ) ;
#91 = FACE_OUTER_BOUND ( 'NONE', #84, .T. ) ;
#92 = FACE_BOUND ( 'NONE', #45, .T. ) ;
#93 = CC_DESIGN_APPROVAL ( #26, ( #66 ) ) ;
#94 = APPROVAL_STATUS ( 'not_yet_approved' ) ;
#95 = PERSON_AND_ORGANIZATION ( #192, #188 ) ;
#96 = APPROVAL_STATUS ( 'not_yet_approved' ) ;
#97 = PERSON_AND_ORGANIZATION_ROLE ( 'creator' ) ;
#98 = DIRECTION ( 'NONE',  ( -3.491481338843133355E-15, 1.224646799147353207E-16, -1.000000000000000000 ) ) ;
#99 = DIRECTION ( 'NONE',  ( 0.000000000000000000, 1.000000000000000000, 0.000000000000000000 ) ) ;
#100 = CC_DESIGN_APPROVAL ( #194, ( #176 ) ) ;
#101 = CARTESIAN_POINT ( 'NONE',  ( 0.000000000000000000, 0.000000000000000000, 0.000000000000000000 ) ) ;
#102 = AXIS2_PLACEMENT_3D ( 'NONE', #183, #38, #200 ) ;
#103 = ORIENTED_EDGE ( 'NONE', *, *, #70, .T. ) ;
#104 = ADVANCED_FACE ( 'NONE', ( #181, #67 ), #42, .T. ) ;
#105 = EDGE_LOOP ( 'NONE', ( #32 ) ) ;
#106 = DIRECTION ( 'NONE',  ( -3.491481338843133355E-15, 1.224646799147353207E-16, -1.000000000000000000 ) ) ;
#107 = AXIS2_PLACEMENT_3D ( 'NONE', #164, #111, #71 ) ;
#108 = DIRECTION ( 'NONE',  ( 0.000000000000000000, 1.000000000000000000, 0.000000000000000000 ) ) ;
#109 = FACE_OUTER_BOUND ( 'NONE', #29, .T. ) ;
#110 = CARTESIAN_POINT ( 'NONE',  ( 0.000000000000000000, 5.500000000000000000, 0.000000000000000000 ) ) ;
#111 = DIRECTION ( 'NONE',  ( -3.491481338843133355E-15, 1.224646799147353207E-16, -1.000000000000000000 ) ) ;
#112 = AXIS2_PLACEMENT_3D ( 'NONE', #15, #219, #122 ) ;
#113 = ADVANCED_FACE ( 'NONE', ( #166 ), #137, .T. ) ;
#114 = CARTESIAN_POINT ( 'NONE',  ( 1.361677722148822387E-13, 5.999999999999989342, 39.00000000000000711 ) ) ;
#115 = PERSON_AND_ORGANIZATION ( #192, #188 ) ;
#116 = UNCERTAINTY_MEASURE_WITH_UNIT (LENGTH_MEASURE( 1.000000000000000082E-05 ), #58, 'distance_accuracy_value', 'NONE');
#117 = EDGE_LOOP ( 'NONE', ( #88 ) ) ;
#118 = DIRECTION ( 'NONE',  ( -3.491481338843133355E-15, 1.224646799147353207E-16, -1.000000000000000000 ) ) ;
#119 = CARTESIAN_POINT ( 'NONE',  ( 2.897929511239800811E-13, -1.016456843292303150E-14, 83.00000000000000000 ) ) ;
#120 = CARTESIAN_POINT ( 'NONE',  ( 4.189777606611760026E-14, -1.469576158976823947E-15, 12.00000000000000000 ) ) ;
#121 = EDGE_LOOP ( 'NONE', ( #197 ) ) ;
#122 = DIRECTION ( 'NONE',  ( 0.000000000000000000, 1.000000000000000000, 0.000000000000000000 ) ) ;
#123 = CIRCLE ( 'NONE', #19, 4.999999999999998224 ) ;
#124 = DIRECTION ( 'NONE',  ( 3.491481338843133355E-15, -1.224646799147353207E-16, 1.000000000000000000 ) ) ;
#125 = CARTESIAN_POINT ( 'NONE',  ( 1.326762908760390423E-13, 4.999999999999994671, 38.00000000000000000 ) ) ;
#126 = EDGE_CURVE ( 'NONE', #2, #2, #134, .T. ) ;
#127 = APPROVAL_DATE_TIME ( #24, #194 ) ;
#128 = DIRECTION ( 'NONE',  ( 0.000000000000000000, 0.000000000000000000, 1.000000000000000000 ) ) ;
#129 = PERSON_AND_ORGANIZATION ( #192, #188 ) ;
#130 = APPLICATION_CONTEXT ( 'configuration controlled 3d designs of mechanical parts and assemblies' ) ;
#131 = ADVANCED_FACE ( 'NONE', ( #140 ), #17, .F. ) ;
#132 = LOCAL_TIME ( 11, 23, 17.00000000000000000, #151 ) ;
#133 = EDGE_LOOP ( 'NONE', ( #179 ) ) ;
#134 = CIRCLE ( 'NONE', #223, 5.999999999999994671 ) ;
#135 = FACE_OUTER_BOUND ( 'NONE', #210, .T. ) ;
#136 = ORIENTED_EDGE ( 'NONE', *, *, #126, .T. ) ;
#137 = PLANE ( 'NONE',  #107 ) ;
#138 = FACE_OUTER_BOUND ( 'NONE', #8, .T. ) ;
#139 = APPROVAL_PERSON_ORGANIZATION ( #150, #69, #48 ) ;
#140 = FACE_OUTER_BOUND ( 'NONE', #215, .T. ) ;
#141 = CC_DESIGN_PERSON_AND_ORGANIZATION_ASSIGNMENT ( #95, #97, ( #176 ) ) ;
#142 = DIRECTION ( 'NONE',  ( 4.275831445896958607E-31, 1.000000000000000000, 1.224646799147353207E-16 ) ) ;
#143 = CARTESIAN_POINT ( 'NONE',  ( 4.189777606611760026E-14, 5.499999999999998224, 12.00000000000000000 ) ) ;
#144 = CALENDAR_DATE ( 2024, 12, 7 ) ;
#145 = LOCAL_TIME ( 11, 23, 17.00000000000000000, #229 ) ;
#146 = DATE_TIME_ROLE ( 'creation_date' ) ;
#147 = AXIS2_PLACEMENT_3D ( 'NONE', #186, #162, #54 ) ;
#148 = COORDINATED_UNIVERSAL_TIME_OFFSET ( 1, 0, .AHEAD. ) ;
#149 = APPROVAL_STATUS ( 'not_yet_approved' ) ;
#150 = PERSON_AND_ORGANIZATION ( #192, #188 ) ;
#151 = COORDINATED_UNIVERSAL_TIME_OFFSET ( 1, 0, .AHEAD. ) ;
#152 = ORIENTED_EDGE ( 'NONE', *, *, #61, .T. ) ;
#153 = ADVANCED_FACE ( 'NONE', ( #138, #185 ), #56, .T. ) ;
#154 = PRODUCT_DEFINITION_SHAPE ( 'NONE', 'NONE',  #66 ) ;
#155 = CARTESIAN_POINT ( 'NONE',  ( 4.189777606611760026E-14, 4.124339402320105685E-32, 12.00000000000000000 ) ) ;
#156 = SECURITY_CLASSIFICATION ( '', '', #168 ) ;
#157 = DIRECTION ( 'NONE',  ( -3.491481338843133355E-15, 1.224646799147353207E-16, -1.000000000000000000 ) ) ;
#158 = CARTESIAN_POINT ( 'NONE',  ( 4.189777606611760026E-14, -1.469576158976823947E-15, 12.00000000000000000 ) ) ;
#159 = APPLICATION_CONTEXT ( 'configuration controlled 3d designs of mechanical parts and assemblies' ) ;
#160 = CARTESIAN_POINT ( 'NONE',  ( 0.000000000000000000, 0.000000000000000000, 0.000000000000000000 ) ) ;
#161 = CC_DESIGN_DATE_AND_TIME_ASSIGNMENT ( #189, #59, ( #156 ) ) ;
#162 = DIRECTION ( 'NONE',  ( -3.491481338843133355E-15, 1.224646799147353207E-16, -1.000000000000000000 ) ) ;
#163 = CC_DESIGN_PERSON_AND_ORGANIZATION_ASSIGNMENT ( #209, #75, ( #74 ) ) ;
#164 = CARTESIAN_POINT ( 'NONE',  ( -1.175853647621663485E-30, 4.124339402320108422E-32, -3.367778697655221012E-16 ) ) ;
#165 = AXIS2_PLACEMENT_3D ( 'NONE', #201, #187, #53 ) ;
#166 = FACE_OUTER_BOUND ( 'NONE', #199, .T. ) ;
#167 = DATE_AND_TIME ( #39, #55 ) ;
#168 = SECURITY_CLASSIFICATION_LEVEL ( 'unclassified' ) ;
#169 = LOCAL_TIME ( 11, 23, 17.00000000000000000, #190 ) ;
#170 = APPLICATION_PROTOCOL_DEFINITION ( 'international standard', 'config_control_design', 1994, #159 ) ;
#171 = MANIFOLD_SOLID_BREP ( 'Corps-Déplacer/Copier1[1]', #180 ) ;
#172 = CARTESIAN_POINT ( 'NONE',  ( 0.000000000000000000, 0.000000000000000000, 0.000000000000000000 ) ) ;
#173 = ADVANCED_FACE ( 'NONE', ( #36, #92 ), #68, .T. ) ;
#174 = PERSON_AND_ORGANIZATION ( #192, #188 ) ;
#175 = ADVANCED_FACE ( 'NONE', ( #51 ), #33, .F. ) ;
#176 = PRODUCT_DEFINITION_FORMATION_WITH_SPECIFIED_SOURCE ( 'ANY', '', #74, .NOT_KNOWN. ) ;
#177 = EDGE_LOOP ( 'NONE', ( #136 ) ) ;
#178 = DIRECTION ( 'NONE',  ( -3.491481338843133355E-15, 1.224646799147353207E-16, -1.000000000000000000 ) ) ;
#179 = ORIENTED_EDGE ( 'NONE', *, *, #207, .F. ) ;
#180 = CLOSED_SHELL ( 'NONE', ( #131, #153, #104, #44, #173, #175 ) ) ;
#181 = FACE_OUTER_BOUND ( 'NONE', #82, .T. ) ;
#182 = ORIENTED_EDGE ( 'NONE', *, *, #70, .F. ) ;
#183 = CARTESIAN_POINT ( 'NONE',  ( 2.897929511239800811E-13, 4.124339402320088716E-32, 83.00000000000000000 ) ) ;
#184 = CIRCLE ( 'NONE', #90, 5.499999999999994671 ) ;
#185 = FACE_OUTER_BOUND ( 'NONE', #105, .T. ) ;
#186 = CARTESIAN_POINT ( 'NONE',  ( 2.897929511239800811E-13, -1.016456843292303150E-14, 83.00000000000000000 ) ) ;
#187 = DIRECTION ( 'NONE',  ( 3.491481338843133355E-15, -1.224646799147353207E-16, 1.000000000000000000 ) ) ;
#188 = ORGANIZATION ( 'UNSPECIFIED', 'UNSPECIFIED', '' ) ;
#189 = DATE_AND_TIME ( #80, #145 ) ;
#190 = COORDINATED_UNIVERSAL_TIME_OFFSET ( 1, 0, .AHEAD. ) ;
#191 = DATE_AND_TIME ( #144, #81 ) ;
#192 = PERSON ( 'UNSPECIFIED', 'UNSPECIFIED', 'UNSPECIFIED', ('UNSPECIFIED'), ('UNSPECIFIED'), ('UNSPECIFIED') ) ;
#193 = DIRECTION ( 'NONE',  ( 1.000000000000000000, 0.000000000000000000, 0.000000000000000000 ) ) ;
#194 = APPROVAL ( #96, 'UNSPECIFIED' ) ;
#195 = CLOSED_SHELL ( 'NONE', ( #113, #218, #52 ) ) ;
#196 = DIRECTION ( 'NONE',  ( -3.491481338843133355E-15, 1.224646799147353207E-16, -1.000000000000000000 ) ) ;
#197 = ORIENTED_EDGE ( 'NONE', *, *, #61, .F. ) ;
#198 = DATE_AND_TIME ( #236, #132 ) ;
#199 = EDGE_LOOP ( 'NONE', ( #103 ) ) ;
#200 = DIRECTION ( 'NONE',  ( 4.275831445896958607E-31, 1.000000000000000000, 1.224646799147353207E-16 ) ) ;
#201 = CARTESIAN_POINT ( 'NONE',  ( 4.189777606611760026E-14, 3.749399456654640188E-32, 12.00000000000000000 ) ) ;
#202 = CIRCLE ( 'NONE', #227, 4.999999999999999112 ) ;
#203 = VERTEX_POINT ( 'NONE', #110 ) ;
#204 = CARTESIAN_POINT ( 'NONE',  ( 2.897929511239800811E-13, 5.499999999999984013, 83.00000000000000000 ) ) ;
#205 = PERSON_AND_ORGANIZATION_ROLE ( 'creator' ) ;
#206 = CC_DESIGN_APPROVAL ( #69, ( #156 ) ) ;
#207 = EDGE_CURVE ( 'NONE', #1, #1, #235, .T. ) ;
#208 = COORDINATED_UNIVERSAL_TIME_OFFSET ( 1, 0, .AHEAD. ) ;
#209 = PERSON_AND_ORGANIZATION ( #192, #188 ) ;
#210 = EDGE_LOOP ( 'NONE', ( #231 ) ) ;
#211 = DIRECTION ( 'NONE',  ( -4.275831445896958607E-31, -1.000000000000000000, -1.224646799147353207E-16 ) ) ;
#212 = EDGE_LOOP ( 'NONE', ( #49 ) ) ;
#213 = APPROVAL_DATE_TIME ( #198, #69 ) ;
#214 = CC_DESIGN_PERSON_AND_ORGANIZATION_ASSIGNMENT ( #226, #43, ( #176 ) ) ;
#215 = EDGE_LOOP ( 'NONE', ( #47 ) ) ;
#216 = CARTESIAN_POINT ( 'NONE',  ( 1.326762908760390423E-13, -4.653657836759941941E-15, 38.00000000000000000 ) ) ;
#217 = AXIS2_PLACEMENT_3D ( 'NONE', #34, #241, #240 ) ;
#218 = ADVANCED_FACE ( 'NONE', ( #109, #91 ), #18, .T. ) ;
#219 = DIRECTION ( 'NONE',  ( -3.491481338843133355E-15, 1.224646799147353207E-16, -1.000000000000000000 ) ) ;
#220 = ADVANCED_BREP_SHAPE_REPRESENTATION ( '976413', ( #171, #10, #242 ), #6 ) ;
#221 = VERTEX_POINT ( 'NONE', #204 ) ;
#222 = CARTESIAN_POINT ( 'NONE',  ( 2.880472104545584198E-13, -1.010333609296566392E-14, 82.49999999999998579 ) ) ;
#223 = AXIS2_PLACEMENT_3D ( 'NONE', #222, #106, #108 ) ;
#224 = VERTEX_POINT ( 'NONE', #125 ) ;
#225 = VERTEX_POINT ( 'NONE', #57 ) ;
#226 = PERSON_AND_ORGANIZATION ( #192, #188 ) ;
#227 = AXIS2_PLACEMENT_3D ( 'NONE', #46, #118, #99 ) ;
#228 = APPROVAL_ROLE ( '' ) ;
#229 = COORDINATED_UNIVERSAL_TIME_OFFSET ( 1, 0, .AHEAD. ) ;
#230 =( NAMED_UNIT ( * ) SI_UNIT ( $, .STERADIAN. ) SOLID_ANGLE_UNIT ( ) );
#231 = ORIENTED_EDGE ( 'NONE', *, *, #87, .F. ) ;
#232 = DIRECTION ( 'NONE',  ( 3.491481338843133355E-15, -1.224646799147353207E-16, 1.000000000000000000 ) ) ;
#233 = PRODUCT_RELATED_PRODUCT_CATEGORY ( 'detail', '', ( #74 ) ) ;
#234 = ORIENTED_EDGE ( 'NONE', *, *, #207, .T. ) ;
#235 = CIRCLE ( 'NONE', #112, 5.999999999999994671 ) ;
#236 = CALENDAR_DATE ( 2024, 12, 7 ) ;
#237 = DIRECTION ( 'NONE',  ( 4.275831445896958607E-31, 1.000000000000000000, 1.224646799147353207E-16 ) ) ;
#238 = DIRECTION ( 'NONE',  ( 0.000000000000000000, 1.000000000000000000, 0.000000000000000000 ) ) ;
#239 = DIRECTION ( 'NONE',  ( 0.000000000000000000, -1.000000000000000000, 0.000000000000000000 ) ) ;
#240 = DIRECTION ( 'NONE',  ( 4.275831445896957731E-31, 1.000000000000000000, 1.224646799147353207E-16 ) ) ;
#241 = DIRECTION ( 'NONE',  ( -3.491481338843133355E-15, 1.224646799147353207E-16, -1.000000000000000000 ) ) ;
#242 = AXIS2_PLACEMENT_3D ( 'NONE', #172, #128, #193 ) ;
#243 = DIRECTION ( 'NONE',  ( -3.491481338843133355E-15, 1.224646799147353207E-16, -1.000000000000000000 ) ) ;
ENDSEC;
END-ISO-10303-21;
