ISO-10303-21;
HEADER;
FILE_DESCRIPTION (( 'STEP AP203' ),
    '1' );
FILE_NAME ('976412.step',
    '2024-07-12T09:23:16',
    ( '' ),
    ( '' ),
    'SwSTEP 2.0',
    'SolidWorks 2022',
    '' );
FILE_SCHEMA (( 'CONFIG_CONTROL_DESIGN' ));
ENDSEC;

DATA;
#1 = CC_DESIGN_PERSON_AND_ORGANIZATION_ASSIGNMENT ( #124, #200, ( #208 ) ) ;
#2 = AXIS2_PLACEMENT_3D ( 'NONE', #121, #155, #193 ) ;
#3 = CC_DESIGN_DATE_AND_TIME_ASSIGNMENT ( #35, #18, ( #71 ) ) ;
#4 = DATE_AND_TIME ( #123, #33 ) ;
#5 = EDGE_LOOP ( 'NONE', ( #133 ) ) ;
#6 = DESIGN_CONTEXT ( 'detailed design', #120, 'design' ) ;
#7 = CONICAL_SURFACE ( 'NONE', #176, 4.500000000000005329, 0.7853981633974482790 ) ;
#8 = MANIFOLD_SOLID_BREP ( 'Corps-Déplacer/Copier1[2]', #220 ) ;
#9 = DIRECTION ( 'NONE',  ( -3.491481338843133355E-15, 1.224646799147353207E-16, -1.000000000000000000 ) ) ;
#10 = ADVANCED_FACE ( 'NONE', ( #131, #192 ), #90, .T. ) ;
#11 = CARTESIAN_POINT ( 'NONE',  ( 0.000000000000000000, 0.000000000000000000, 0.000000000000000000 ) ) ;
#12 = PLANE ( 'NONE',  #26 ) ;
#13 = CARTESIAN_POINT ( 'NONE',  ( 4.364351673553916568E-13, -1.530808498934191561E-14, 125.0000000000000000 ) ) ;
#14 =( NAMED_UNIT ( * ) SI_UNIT ( $, .STERADIAN. ) SOLID_ANGLE_UNIT ( ) );
#15 = VERTEX_POINT ( 'NONE', #148 ) ;
#16 = AXIS2_PLACEMENT_3D ( 'NONE', #11, #142, #217 ) ;
#17 = APPROVAL_DATE_TIME ( #243, #179 ) ;
#18 = DATE_TIME_ROLE ( 'creation_date' ) ;
#19 =( NAMED_UNIT ( * ) PLANE_ANGLE_UNIT ( ) SI_UNIT ( $, .RADIAN. ) );
#20 = LOCAL_TIME ( 11, 23, 16.00000000000000000, #84 ) ;
#21 = DIRECTION ( 'NONE',  ( 0.000000000000000000, 1.000000000000000000, 0.000000000000000000 ) ) ;
#22 = CC_DESIGN_APPROVAL ( #132, ( #79 ) ) ;
#23 = ORIENTED_EDGE ( 'NONE', *, *, #136, .T. ) ;
#24 = EDGE_LOOP ( 'NONE', ( #229 ) ) ;
#25 = LOCAL_TIME ( 11, 23, 16.00000000000000000, #187 ) ;
#26 = AXIS2_PLACEMENT_3D ( 'NONE', #178, #177, #27 ) ;
#27 = DIRECTION ( 'NONE',  ( 4.275831445896958607E-31, 1.000000000000000000, 1.224646799147353207E-16 ) ) ;
#28 = DIRECTION ( 'NONE',  ( 0.000000000000000000, 1.000000000000000000, 0.000000000000000000 ) ) ;
#29 = CARTESIAN_POINT ( 'NONE',  ( 4.189777606611760026E-14, 3.749399456654641830E-32, 12.00000000000000000 ) ) ;
#30 = DIRECTION ( 'NONE',  ( 0.000000000000000000, 1.000000000000000000, 0.000000000000000000 ) ) ;
#31 = FACE_OUTER_BOUND ( 'NONE', #57, .T. ) ;
#32 = PERSON_AND_ORGANIZATION ( #65, #49 ) ;
#33 = LOCAL_TIME ( 11, 23, 16.00000000000000000, #52 ) ;
#34 = AXIS2_PLACEMENT_3D ( 'NONE', #122, #64, #118 ) ;
#35 = DATE_AND_TIME ( #168, #20 ) ;
#36 = CIRCLE ( 'NONE', #236, 5.000000000000000000 ) ;
#37 = FACE_OUTER_BOUND ( 'NONE', #38, .T. ) ;
#38 = EDGE_LOOP ( 'NONE', ( #207 ) ) ;
#39 = EDGE_CURVE ( 'NONE', #98, #98, #108, .T. ) ;
#40 = CARTESIAN_POINT ( 'NONE',  ( 2.618611004132350143E-13, 4.749999999999990230, 75.00000000000000000 ) ) ;
#41 = AXIS2_PLACEMENT_3D ( 'NONE', #42, #102, #80 ) ;
#42 = CARTESIAN_POINT ( 'NONE',  ( 4.189777606611760026E-14, -1.469576158976823947E-15, 12.00000000000000000 ) ) ;
#43 = CARTESIAN_POINT ( 'NONE',  ( 4.189777606611760026E-14, -1.469576158976823947E-15, 12.00000000000000000 ) ) ;
#44 = DIRECTION ( 'NONE',  ( 0.000000000000000000, -1.000000000000000000, 0.000000000000000000 ) ) ;
#45 = DIRECTION ( 'NONE',  ( 3.491481338843133355E-15, -1.224646799147353207E-16, 1.000000000000000000 ) ) ;
#46 = VERTEX_POINT ( 'NONE', #103 ) ;
#47 = ADVANCED_FACE ( 'NONE', ( #37, #111 ), #7, .T. ) ;
#48 = APPROVAL_STATUS ( 'not_yet_approved' ) ;
#49 = ORGANIZATION ( 'UNSPECIFIED', 'UNSPECIFIED', '' ) ;
#50 = SECURITY_CLASSIFICATION_LEVEL ( 'unclassified' ) ;
#51 = CC_DESIGN_PERSON_AND_ORGANIZATION_ASSIGNMENT ( #70, #127, ( #71 ) ) ;
#52 = COORDINATED_UNIVERSAL_TIME_OFFSET ( 1, 0, .AHEAD. ) ;
#53 = EDGE_LOOP ( 'NONE', ( #172 ) ) ;
#54 = CIRCLE ( 'NONE', #194, 4.750000000000000000 ) ;
#55 = EDGE_LOOP ( 'NONE', ( #231 ) ) ;
#56 = EDGE_LOOP ( 'NONE', ( #152 ) ) ;
#57 = EDGE_LOOP ( 'NONE', ( #92 ) ) ;
#58 = EDGE_LOOP ( 'NONE', ( #23 ) ) ;
#59 = EDGE_CURVE ( 'NONE', #157, #157, #36, .T. ) ;
#60 = DIRECTION ( 'NONE',  ( -3.491481338843133355E-15, 1.224646799147353207E-16, -1.000000000000000000 ) ) ;
#61 = PLANE ( 'NONE',  #34 ) ;
#62 = AXIS2_PLACEMENT_3D ( 'NONE', #76, #162, #30 ) ;
#63 = DIRECTION ( 'NONE',  ( -3.491481338843133355E-15, 1.224646799147353207E-16, -1.000000000000000000 ) ) ;
#64 = DIRECTION ( 'NONE',  ( -3.491481338843133355E-15, 1.224646799147353207E-16, -1.000000000000000000 ) ) ;
#65 = PERSON ( 'UNSPECIFIED', 'UNSPECIFIED', 'UNSPECIFIED', ('UNSPECIFIED'), ('UNSPECIFIED'), ('UNSPECIFIED') ) ;
#66 = DIRECTION ( 'NONE',  ( 0.000000000000000000, 1.000000000000000000, 0.000000000000000000 ) ) ;
#67 = CC_DESIGN_APPROVAL ( #94, ( #146 ) ) ;
#68 = APPLICATION_PROTOCOL_DEFINITION ( 'international standard', 'config_control_design', 1994, #106 ) ;
#69 = ADVANCED_FACE ( 'NONE', ( #196 ), #12, .F. ) ;
#70 = PERSON_AND_ORGANIZATION ( #65, #49 ) ;
#71 = PRODUCT_DEFINITION ( 'UNKNOWN', '', #146, #6 ) ;
#72 = PERSON_AND_ORGANIZATION_ROLE ( 'creator' ) ;
#73 = PERSON_AND_ORGANIZATION_ROLE ( 'classification_officer' ) ;
#74 = AXIS2_PLACEMENT_3D ( 'NONE', #130, #110, #21 ) ;
#75 = ORIENTED_EDGE ( 'NONE', *, *, #204, .T. ) ;
#76 = CARTESIAN_POINT ( 'NONE',  ( 2.627339707479457692E-13, -9.215467163583832520E-15, 75.25000000000000000 ) ) ;
#77 = DIRECTION ( 'NONE',  ( -3.491481338843133355E-15, 1.224646799147353207E-16, -1.000000000000000000 ) ) ;
#78 = VERTEX_POINT ( 'NONE', #40 ) ;
#79 = SECURITY_CLASSIFICATION ( '', '', #50 ) ;
#80 = DIRECTION ( 'NONE',  ( 0.000000000000000000, 1.000000000000000000, 0.000000000000000000 ) ) ;
#81 = DIRECTION ( 'NONE',  ( 4.275831445896958607E-31, 1.000000000000000000, 1.224646799147353207E-16 ) ) ;
#82 = ADVANCED_FACE ( 'NONE', ( #237 ), #158, .T. ) ;
#83 =( LENGTH_UNIT ( ) NAMED_UNIT ( * ) SI_UNIT ( .MILLI., .METRE. ) );
#84 = COORDINATED_UNIVERSAL_TIME_OFFSET ( 1, 0, .AHEAD. ) ;
#85 = MANIFOLD_SOLID_BREP ( 'Corps-Déplacer/Copier1[1]', #240 ) ;
#86 = APPROVAL_ROLE ( '' ) ;
#87 = DIRECTION ( 'NONE',  ( 1.000000000000000000, 0.000000000000000000, 0.000000000000000000 ) ) ;
#88 = LOCAL_TIME ( 11, 23, 16.00000000000000000, #134 ) ;
#89 = ADVANCED_FACE ( 'NONE', ( #31, #140 ), #163, .T. ) ;
#90 = CYLINDRICAL_SURFACE ( 'NONE', #129, 4.749999999999997335 ) ;
#91 = AXIS2_PLACEMENT_3D ( 'NONE', #241, #222, #87 ) ;
#92 = ORIENTED_EDGE ( 'NONE', *, *, #156, .T. ) ;
#93 = UNCERTAINTY_MEASURE_WITH_UNIT (LENGTH_MEASURE( 1.000000000000000082E-05 ), #83, 'distance_accuracy_value', 'NONE');
#94 = APPROVAL ( #48, 'UNSPECIFIED' ) ;
#95 = ORIENTED_EDGE ( 'NONE', *, *, #59, .F. ) ;
#96 = CARTESIAN_POINT ( 'NONE',  ( 0.000000000000000000, 0.000000000000000000, 0.000000000000000000 ) ) ;
#97 = CARTESIAN_POINT ( 'NONE',  ( -2.137915722948479128E-30, 7.498798913309288039E-32, -6.123233995736766282E-16 ) ) ;
#98 = VERTEX_POINT ( 'NONE', #215 ) ;
#99 = DIRECTION ( 'NONE',  ( -3.491481338843133355E-15, 1.224646799147353207E-16, -1.000000000000000000 ) ) ;
#100 = DIRECTION ( 'NONE',  ( -4.275831445896958607E-31, -1.000000000000000000, -1.224646799147353207E-16 ) ) ;
#101 = ADVANCED_FACE ( 'NONE', ( #119 ), #61, .T. ) ;
#102 = DIRECTION ( 'NONE',  ( -3.491481338843133355E-15, 1.224646799147353207E-16, -1.000000000000000000 ) ) ;
#103 = CARTESIAN_POINT ( 'NONE',  ( 2.627339707479457692E-13, 4.999999999999984901, 75.25000000000000000 ) ) ;
#104 = CALENDAR_DATE ( 2024, 12, 7 ) ;
#105 = CIRCLE ( 'NONE', #139, 5.000000000000006217 ) ;
#106 = APPLICATION_CONTEXT ( 'configuration controlled 3d designs of mechanical parts and assemblies' ) ;
#107 = MECHANICAL_CONTEXT ( 'NONE', #106, 'mechanical' ) ;
#108 = CIRCLE ( 'NONE', #74, 4.500000000000005329 ) ;
#109 = EDGE_CURVE ( 'NONE', #78, #78, #54, .T. ) ;
#110 = DIRECTION ( 'NONE',  ( -3.491481338843133355E-15, 1.224646799147353207E-16, -1.000000000000000000 ) ) ;
#111 = FACE_BOUND ( 'NONE', #56, .T. ) ;
#112 = CC_DESIGN_DATE_AND_TIME_ASSIGNMENT ( #4, #230, ( #79 ) ) ;
#113 = ORIENTED_EDGE ( 'NONE', *, *, #109, .T. ) ;
#114 = PRODUCT_DEFINITION_SHAPE ( 'NONE', 'NONE',  #71 ) ;
#115 = ADVANCED_BREP_SHAPE_REPRESENTATION ( '976412', ( #85, #8, #91 ), #138 ) ;
#116 = CYLINDRICAL_SURFACE ( 'NONE', #2, 5.000000000000000000 ) ;
#117 = CIRCLE ( 'NONE', #41, 4.749999999999995559 ) ;
#118 = DIRECTION ( 'NONE',  ( 4.275831445896958607E-31, 1.000000000000000000, 1.224646799147353207E-16 ) ) ;
#119 = FACE_OUTER_BOUND ( 'NONE', #5, .T. ) ;
#120 = APPLICATION_CONTEXT ( 'configuration controlled 3d designs of mechanical parts and assemblies' ) ;
#121 = CARTESIAN_POINT ( 'NONE',  ( 0.000000000000000000, 0.000000000000000000, 0.000000000000000000 ) ) ;
#122 = CARTESIAN_POINT ( 'NONE',  ( -1.068957861474239564E-30, 3.749399456654644020E-32, -3.061616997868383141E-16 ) ) ;
#123 = CALENDAR_DATE ( 2024, 12, 7 ) ;
#124 = PERSON_AND_ORGANIZATION ( #65, #49 ) ;
#125 = APPROVAL_PERSON_ORGANIZATION ( #189, #132, #209 ) ;
#126 = VERTEX_POINT ( 'NONE', #203 ) ;
#127 = PERSON_AND_ORGANIZATION_ROLE ( 'creator' ) ;
#128 = ADVANCED_FACE ( 'NONE', ( #180, #141 ), #216, .T. ) ;
#129 = AXIS2_PLACEMENT_3D ( 'NONE', #96, #174, #205 ) ;
#130 = CARTESIAN_POINT ( 'NONE',  ( 4.364351673553916568E-13, -1.530808498934191561E-14, 125.0000000000000000 ) ) ;
#131 = FACE_OUTER_BOUND ( 'NONE', #151, .T. ) ;
#132 = APPROVAL ( #153, 'UNSPECIFIED' ) ;
#133 = ORIENTED_EDGE ( 'NONE', *, *, #173, .T. ) ;
#134 = COORDINATED_UNIVERSAL_TIME_OFFSET ( 1, 0, .AHEAD. ) ;
#135 = DIRECTION ( 'NONE',  ( -4.275831445896958607E-31, -1.000000000000000000, -1.224646799147353207E-16 ) ) ;
#136 = EDGE_CURVE ( 'NONE', #126, #126, #117, .T. ) ;
#137 = DIRECTION ( 'NONE',  ( 3.491481338843133355E-15, -1.224646799147353207E-16, 1.000000000000000000 ) ) ;
#138 =( GEOMETRIC_REPRESENTATION_CONTEXT ( 3 ) GLOBAL_UNCERTAINTY_ASSIGNED_CONTEXT ( ( #93 ) ) GLOBAL_UNIT_ASSIGNED_CONTEXT ( ( #83, #19, #14 ) ) REPRESENTATION_CONTEXT ( 'NONE', 'WORKASPACE' ) );
#139 = AXIS2_PLACEMENT_3D ( 'NONE', #161, #63, #28 ) ;
#140 = FACE_BOUND ( 'NONE', #53, .T. ) ;
#141 = FACE_OUTER_BOUND ( 'NONE', #24, .T. ) ;
#142 = DIRECTION ( 'NONE',  ( -3.491481338843133355E-15, 1.224646799147353207E-16, -1.000000000000000000 ) ) ;
#143 = AXIS2_PLACEMENT_3D ( 'NONE', #29, #45, #100 ) ;
#144 = CALENDAR_DATE ( 2024, 12, 7 ) ;
#145 = APPROVAL_ROLE ( '' ) ;
#146 = PRODUCT_DEFINITION_FORMATION_WITH_SPECIFIED_SOURCE ( 'ANY', '', #208, .NOT_KNOWN. ) ;
#147 = PERSON_AND_ORGANIZATION_ROLE ( 'design_supplier' ) ;
#148 = CARTESIAN_POINT ( 'NONE',  ( 0.000000000000000000, 5.000000000000000000, 0.000000000000000000 ) ) ;
#149 = APPROVAL_DATE_TIME ( #171, #132 ) ;
#150 = AXIS2_PLACEMENT_3D ( 'NONE', #183, #137, #44 ) ;
#151 = EDGE_LOOP ( 'NONE', ( #113 ) ) ;
#152 = ORIENTED_EDGE ( 'NONE', *, *, #39, .T. ) ;
#153 = APPROVAL_STATUS ( 'not_yet_approved' ) ;
#154 = EDGE_LOOP ( 'NONE', ( #75 ) ) ;
#155 = DIRECTION ( 'NONE',  ( -3.491481338843133355E-15, 1.224646799147353207E-16, -1.000000000000000000 ) ) ;
#156 = EDGE_CURVE ( 'NONE', #46, #46, #170, .T. ) ;
#157 = VERTEX_POINT ( 'NONE', #213 ) ;
#158 = PLANE ( 'NONE',  #143 ) ;
#159 = AXIS2_PLACEMENT_3D ( 'NONE', #97, #77, #81 ) ;
#160 = CC_DESIGN_PERSON_AND_ORGANIZATION_ASSIGNMENT ( #188, #72, ( #146 ) ) ;
#161 = CARTESIAN_POINT ( 'NONE',  ( 4.346894266859700964E-13, -1.524685264938454803E-14, 124.5000000000000000 ) ) ;
#162 = DIRECTION ( 'NONE',  ( -3.491481338843133355E-15, 1.224646799147353207E-16, -1.000000000000000000 ) ) ;
#163 = CONICAL_SURFACE ( 'NONE', #150, 4.750000000000000000, 0.7853981633974361776 ) ;
#164 = PERSON_AND_ORGANIZATION ( #65, #49 ) ;
#165 = APPROVAL_DATE_TIME ( #221, #94 ) ;
#166 = PRODUCT_RELATED_PRODUCT_CATEGORY ( 'detail', '', ( #208 ) ) ;
#167 = CC_DESIGN_SECURITY_CLASSIFICATION ( #79, ( #146 ) ) ;
#168 = CALENDAR_DATE ( 2024, 12, 7 ) ;
#169 = CALENDAR_DATE ( 2024, 12, 7 ) ;
#170 = CIRCLE ( 'NONE', #62, 4.999999999999993783 ) ;
#171 = DATE_AND_TIME ( #169, #88 ) ;
#172 = ORIENTED_EDGE ( 'NONE', *, *, #109, .F. ) ;
#173 = EDGE_CURVE ( 'NONE', #15, #15, #185, .T. ) ;
#174 = DIRECTION ( 'NONE',  ( -3.491481338843133355E-15, 1.224646799147353207E-16, -1.000000000000000000 ) ) ;
#175 = APPROVAL_PERSON_ORGANIZATION ( #164, #94, #86 ) ;
#176 = AXIS2_PLACEMENT_3D ( 'NONE', #13, #60, #198 ) ;
#177 = DIRECTION ( 'NONE',  ( -3.491481338843133355E-15, 1.224646799147353207E-16, -1.000000000000000000 ) ) ;
#178 = CARTESIAN_POINT ( 'NONE',  ( 4.364351673553916568E-13, 3.374459510989160459E-32, 125.0000000000000000 ) ) ;
#179 = APPROVAL ( #242, 'UNSPECIFIED' ) ;
#180 = FACE_OUTER_BOUND ( 'NONE', #232, .T. ) ;
#181 = LOCAL_TIME ( 11, 23, 16.00000000000000000, #225 ) ;
#182 = CARTESIAN_POINT ( 'NONE',  ( 2.618611004132350143E-13, -9.184850993605148733E-15, 75.00000000000000000 ) ) ;
#183 = CARTESIAN_POINT ( 'NONE',  ( 2.618611004132350143E-13, -9.184850993605148733E-15, 75.00000000000000000 ) ) ;
#184 = ADVANCED_FACE ( 'NONE', ( #195, #214 ), #116, .T. ) ;
#185 = CIRCLE ( 'NONE', #159, 5.000000000000000000 ) ;
#186 = VERTEX_POINT ( 'NONE', #199 ) ;
#187 = COORDINATED_UNIVERSAL_TIME_OFFSET ( 1, 0, .AHEAD. ) ;
#188 = PERSON_AND_ORGANIZATION ( #65, #49 ) ;
#189 = PERSON_AND_ORGANIZATION ( #65, #49 ) ;
#190 = EDGE_LOOP ( 'NONE', ( #228 ) ) ;
#191 = ORIENTED_EDGE ( 'NONE', *, *, #156, .F. ) ;
#192 = FACE_OUTER_BOUND ( 'NONE', #190, .T. ) ;
#193 = DIRECTION ( 'NONE',  ( 4.275831445896958607E-31, 1.000000000000000000, 1.224646799147353207E-16 ) ) ;
#194 = AXIS2_PLACEMENT_3D ( 'NONE', #182, #99, #66 ) ;
#195 = FACE_OUTER_BOUND ( 'NONE', #210, .T. ) ;
#196 = FACE_OUTER_BOUND ( 'NONE', #55, .T. ) ;
#197 = CARTESIAN_POINT ( 'NONE',  ( 4.189777606611760026E-14, 3.561929483821906071E-32, 12.00000000000000000 ) ) ;
#198 = DIRECTION ( 'NONE',  ( 0.000000000000000000, 1.000000000000000000, 0.000000000000000000 ) ) ;
#199 = CARTESIAN_POINT ( 'NONE',  ( 4.346894266859700964E-13, 4.999999999999990230, 124.5000000000000000 ) ) ;
#200 = PERSON_AND_ORGANIZATION_ROLE ( 'design_owner' ) ;
#201 = AXIS2_PLACEMENT_3D ( 'NONE', #197, #234, #135 ) ;
#202 = PERSON_AND_ORGANIZATION ( #65, #49 ) ;
#203 = CARTESIAN_POINT ( 'NONE',  ( 4.189777606611760026E-14, 4.749999999999993783, 12.00000000000000000 ) ) ;
#204 = EDGE_CURVE ( 'NONE', #186, #186, #105, .T. ) ;
#205 = DIRECTION ( 'NONE',  ( 4.275831445896958607E-31, 1.000000000000000000, 1.224646799147353207E-16 ) ) ;
#206 = SHAPE_DEFINITION_REPRESENTATION ( #114, #115 ) ;
#207 = ORIENTED_EDGE ( 'NONE', *, *, #204, .F. ) ;
#208 = PRODUCT ( '976412', '976412', '', ( #107 ) ) ;
#209 = APPROVAL_ROLE ( '' ) ;
#210 = EDGE_LOOP ( 'NONE', ( #191 ) ) ;
#211 = CC_DESIGN_PERSON_AND_ORGANIZATION_ASSIGNMENT ( #226, #147, ( #146 ) ) ;
#212 = EDGE_LOOP ( 'NONE', ( #95 ) ) ;
#213 = CARTESIAN_POINT ( 'NONE',  ( 4.189777606611760026E-14, 4.999999999999998224, 12.00000000000000000 ) ) ;
#214 = FACE_OUTER_BOUND ( 'NONE', #154, .T. ) ;
#215 = CARTESIAN_POINT ( 'NONE',  ( 4.364351673553916568E-13, 4.499999999999990230, 125.0000000000000000 ) ) ;
#216 = CYLINDRICAL_SURFACE ( 'NONE', #16, 5.000000000000000000 ) ;
#217 = DIRECTION ( 'NONE',  ( 4.275831445896958607E-31, 1.000000000000000000, 1.224646799147353207E-16 ) ) ;
#218 = APPROVAL_PERSON_ORGANIZATION ( #32, #179, #145 ) ;
#219 = ADVANCED_FACE ( 'NONE', ( #235 ), #233, .F. ) ;
#220 = CLOSED_SHELL ( 'NONE', ( #101, #128, #82 ) ) ;
#221 = DATE_AND_TIME ( #144, #181 ) ;
#222 = DIRECTION ( 'NONE',  ( 0.000000000000000000, 0.000000000000000000, 1.000000000000000000 ) ) ;
#223 = APPLICATION_PROTOCOL_DEFINITION ( 'international standard', 'config_control_design', 1994, #120 ) ;
#224 = CC_DESIGN_APPROVAL ( #179, ( #71 ) ) ;
#225 = COORDINATED_UNIVERSAL_TIME_OFFSET ( 1, 0, .AHEAD. ) ;
#226 = PERSON_AND_ORGANIZATION ( #65, #49 ) ;
#227 = ORIENTED_EDGE ( 'NONE', *, *, #59, .T. ) ;
#228 = ORIENTED_EDGE ( 'NONE', *, *, #136, .F. ) ;
#229 = ORIENTED_EDGE ( 'NONE', *, *, #173, .F. ) ;
#230 = DATE_TIME_ROLE ( 'classification_date' ) ;
#231 = ORIENTED_EDGE ( 'NONE', *, *, #39, .F. ) ;
#232 = EDGE_LOOP ( 'NONE', ( #227 ) ) ;
#233 = PLANE ( 'NONE',  #201 ) ;
#234 = DIRECTION ( 'NONE',  ( 3.491481338843133355E-15, -1.224646799147353207E-16, 1.000000000000000000 ) ) ;
#235 = FACE_OUTER_BOUND ( 'NONE', #58, .T. ) ;
#236 = AXIS2_PLACEMENT_3D ( 'NONE', #43, #9, #239 ) ;
#237 = FACE_OUTER_BOUND ( 'NONE', #212, .T. ) ;
#238 = CC_DESIGN_PERSON_AND_ORGANIZATION_ASSIGNMENT ( #202, #73, ( #79 ) ) ;
#239 = DIRECTION ( 'NONE',  ( 0.000000000000000000, 1.000000000000000000, 0.000000000000000000 ) ) ;
#240 = CLOSED_SHELL ( 'NONE', ( #219, #10, #89, #184, #47, #69 ) ) ;
#241 = CARTESIAN_POINT ( 'NONE',  ( 0.000000000000000000, 0.000000000000000000, 0.000000000000000000 ) ) ;
#242 = APPROVAL_STATUS ( 'not_yet_approved' ) ;
#243 = DATE_AND_TIME ( #104, #25 ) ;
ENDSEC;
END-ISO-10303-21;
