ISO-10303-21;
HEADER;
FILE_DESCRIPTION (( 'STEP AP203' ),
    '1' );
FILE_NAME ('976411.step',
    '2024-07-12T09:23:16',
    ( '' ),
    ( '' ),
    'SwSTEP 2.0',
    'SolidWorks 2022',
    '' );
FILE_SCHEMA (( 'CONFIG_CONTROL_DESIGN' ));
ENDSEC;

DATA;
#1 = CC_DESIGN_PERSON_AND_ORGANIZATION_ASSIGNMENT ( #219, #103, ( #118 ) ) ;
#2 = AXIS2_PLACEMENT_3D ( 'NONE', #236, #23, #29 ) ;
#3 = CARTESIAN_POINT ( 'NONE',  ( 1.230747171942204602E-13, -4.316879966994420283E-15, 35.25000000000000000 ) ) ;
#4 = AXIS2_PLACEMENT_3D ( 'NONE', #133, #239, #105 ) ;
#5 = ORIENTED_EDGE ( 'NONE', *, *, #214, .T. ) ;
#6 = CARTESIAN_POINT ( 'NONE',  ( 2.601153597438134034E-13, 4.999999999999985789, 74.49999999999998579 ) ) ;
#7 = DIRECTION ( 'NONE',  ( 1.000000000000000000, 0.000000000000000000, 0.000000000000000000 ) ) ;
#8 = ADVANCED_FACE ( 'NONE', ( #241 ), #218, .F. ) ;
#9 = ORIENTED_EDGE ( 'NONE', *, *, #193, .F. ) ;
#10 = FACE_OUTER_BOUND ( 'NONE', #231, .T. ) ;
#11 = EDGE_LOOP ( 'NONE', ( #19 ) ) ;
#12 = CARTESIAN_POINT ( 'NONE',  ( 2.618611004132350143E-13, -9.184850993605148733E-15, 75.00000000000000000 ) ) ;
#13 = CARTESIAN_POINT ( 'NONE',  ( 4.189777606611760026E-14, 3.561929483821908808E-32, 12.00000000000000000 ) ) ;
#14 = APPROVAL_DATE_TIME ( #196, #34 ) ;
#15 = DIRECTION ( 'NONE',  ( -3.491481338843133355E-15, 1.224646799147353207E-16, -1.000000000000000000 ) ) ;
#16 = DIRECTION ( 'NONE',  ( -3.491481338843133355E-15, 1.224646799147353207E-16, -1.000000000000000000 ) ) ;
#17 = VERTEX_POINT ( 'NONE', #226 ) ;
#18 = EDGE_LOOP ( 'NONE', ( #96 ) ) ;
#19 = ORIENTED_EDGE ( 'NONE', *, *, #74, .T. ) ;
#20 = DIRECTION ( 'NONE',  ( 0.000000000000000000, 1.000000000000000000, 0.000000000000000000 ) ) ;
#21 = VERTEX_POINT ( 'NONE', #130 ) ;
#22 = CARTESIAN_POINT ( 'NONE',  ( 2.618611004132350143E-13, 4.499999999999984901, 75.00000000000000000 ) ) ;
#23 = DIRECTION ( 'NONE',  ( -3.491481338843133355E-15, 1.224646799147353207E-16, -1.000000000000000000 ) ) ;
#24 = CARTESIAN_POINT ( 'NONE',  ( -1.068957861474239564E-30, 3.749399456654644020E-32, -3.061616997868383141E-16 ) ) ;
#25 = ORIENTED_EDGE ( 'NONE', *, *, #140, .T. ) ;
#26 = SHAPE_DEFINITION_REPRESENTATION ( #180, #56 ) ;
#27 = CIRCLE ( 'NONE', #225, 4.999999999999994671 ) ;
#28 = PRODUCT_DEFINITION_FORMATION_WITH_SPECIFIED_SOURCE ( 'ANY', '', #195, .NOT_KNOWN. ) ;
#29 = DIRECTION ( 'NONE',  ( 0.000000000000000000, 1.000000000000000000, 0.000000000000000000 ) ) ;
#30 = FACE_OUTER_BOUND ( 'NONE', #186, .T. ) ;
#31 = CIRCLE ( 'NONE', #2, 4.499999999999994671 ) ;
#32 = SECURITY_CLASSIFICATION ( '', '', #45 ) ;
#33 = AXIS2_PLACEMENT_3D ( 'NONE', #230, #42, #7 ) ;
#34 = APPROVAL ( #137, 'UNSPECIFIED' ) ;
#35 =( NAMED_UNIT ( * ) PLANE_ANGLE_UNIT ( ) SI_UNIT ( $, .RADIAN. ) );
#36 = EDGE_CURVE ( 'NONE', #146, #146, #73, .T. ) ;
#37 = ORIENTED_EDGE ( 'NONE', *, *, #181, .F. ) ;
#38 = APPLICATION_PROTOCOL_DEFINITION ( 'international standard', 'config_control_design', 1994, #217 ) ;
#39 = AXIS2_PLACEMENT_3D ( 'NONE', #153, #64, #139 ) ;
#40 = FACE_OUTER_BOUND ( 'NONE', #11, .T. ) ;
#41 = COORDINATED_UNIVERSAL_TIME_OFFSET ( 1, 0, .AHEAD. ) ;
#42 = DIRECTION ( 'NONE',  ( 0.000000000000000000, 0.000000000000000000, 1.000000000000000000 ) ) ;
#43 = EDGE_LOOP ( 'NONE', ( #112 ) ) ;
#44 = LOCAL_TIME ( 11, 23, 16.00000000000000000, #65 ) ;
#45 = SECURITY_CLASSIFICATION_LEVEL ( 'unclassified' ) ;
#46 = DIRECTION ( 'NONE',  ( 4.275831445896958607E-31, 1.000000000000000000, 1.224646799147353207E-16 ) ) ;
#47 = DATE_AND_TIME ( #99, #178 ) ;
#48 = CARTESIAN_POINT ( 'NONE',  ( 4.189777606611760026E-14, -1.469576158976823947E-15, 12.00000000000000000 ) ) ;
#49 = CALENDAR_DATE ( 2024, 12, 7 ) ;
#50 = DIRECTION ( 'NONE',  ( 4.275831445896958607E-31, 1.000000000000000000, 1.224646799147353207E-16 ) ) ;
#51 = AXIS2_PLACEMENT_3D ( 'NONE', #13, #85, #194 ) ;
#52 = DATE_AND_TIME ( #240, #135 ) ;
#53 = ORIENTED_EDGE ( 'NONE', *, *, #242, .T. ) ;
#54 = APPROVAL_STATUS ( 'not_yet_approved' ) ;
#55 = ADVANCED_FACE ( 'NONE', ( #138, #126 ), #123, .T. ) ;
#56 = ADVANCED_BREP_SHAPE_REPRESENTATION ( '976411', ( #235, #233, #33 ), #142 ) ;
#57 = ADVANCED_FACE ( 'NONE', ( #89 ), #192, .T. ) ;
#58 = CYLINDRICAL_SURFACE ( 'NONE', #156, 4.999999999999994671 ) ;
#59 = ORIENTED_EDGE ( 'NONE', *, *, #181, .T. ) ;
#60 = PERSON_AND_ORGANIZATION_ROLE ( 'design_owner' ) ;
#61 = AXIS2_PLACEMENT_3D ( 'NONE', #172, #16, #90 ) ;
#62 = CARTESIAN_POINT ( 'NONE',  ( 4.189777606611760026E-14, 4.749999999999997335, 12.00000000000000000 ) ) ;
#63 =( NAMED_UNIT ( * ) SI_UNIT ( $, .STERADIAN. ) SOLID_ANGLE_UNIT ( ) );
#64 = DIRECTION ( 'NONE',  ( -3.491481338843133355E-15, 1.224646799147353207E-16, -1.000000000000000000 ) ) ;
#65 = COORDINATED_UNIVERSAL_TIME_OFFSET ( 1, 0, .AHEAD. ) ;
#66 = AXIS2_PLACEMENT_3D ( 'NONE', #3, #149, #20 ) ;
#67 = DIRECTION ( 'NONE',  ( 4.275831445896958607E-31, 1.000000000000000000, 1.224646799147353207E-16 ) ) ;
#68 = PERSON_AND_ORGANIZATION ( #109, #203 ) ;
#69 = DIRECTION ( 'NONE',  ( 0.000000000000000000, 1.000000000000000000, 0.000000000000000000 ) ) ;
#70 = PERSON_AND_ORGANIZATION ( #109, #203 ) ;
#71 = ORIENTED_EDGE ( 'NONE', *, *, #214, .F. ) ;
#72 = ORIENTED_EDGE ( 'NONE', *, *, #242, .F. ) ;
#73 = CIRCLE ( 'NONE', #92, 4.749999999999999112 ) ;
#74 = EDGE_CURVE ( 'NONE', #204, #204, #27, .T. ) ;
#75 = DIRECTION ( 'NONE',  ( 3.491481338843133355E-15, -1.224646799147353207E-16, 1.000000000000000000 ) ) ;
#76 = EDGE_LOOP ( 'NONE', ( #220 ) ) ;
#77 = CARTESIAN_POINT ( 'NONE',  ( 4.189777606611760026E-14, 4.999999999999998224, 12.00000000000000000 ) ) ;
#78 = EDGE_LOOP ( 'NONE', ( #37 ) ) ;
#79 = LOCAL_TIME ( 11, 23, 16.00000000000000000, #191 ) ;
#80 = CC_DESIGN_DATE_AND_TIME_ASSIGNMENT ( #52, #124, ( #32 ) ) ;
#81 = EDGE_LOOP ( 'NONE', ( #25 ) ) ;
#82 = VERTEX_POINT ( 'NONE', #77 ) ;
#83 = EDGE_LOOP ( 'NONE', ( #9 ) ) ;
#84 = PERSON_AND_ORGANIZATION ( #109, #203 ) ;
#85 = DIRECTION ( 'NONE',  ( 3.491481338843133355E-15, -1.224646799147353207E-16, 1.000000000000000000 ) ) ;
#86 = ADVANCED_FACE ( 'NONE', ( #30 ), #108, .T. ) ;
#87 = CONICAL_SURFACE ( 'NONE', #182, 4.499999999999994671, 0.7853981633974344012 ) ;
#88 = DIRECTION ( 'NONE',  ( -3.491481338843133355E-15, 1.224646799147353207E-16, -1.000000000000000000 ) ) ;
#89 = FACE_OUTER_BOUND ( 'NONE', #76, .T. ) ;
#90 = DIRECTION ( 'NONE',  ( 4.275831445896958607E-31, 1.000000000000000000, 1.224646799147353207E-16 ) ) ;
#91 = PERSON_AND_ORGANIZATION ( #109, #203 ) ;
#92 = AXIS2_PLACEMENT_3D ( 'NONE', #48, #88, #69 ) ;
#93 = CIRCLE ( 'NONE', #122, 5.000000000000000000 ) ;
#94 = PRODUCT_RELATED_PRODUCT_CATEGORY ( 'detail', '', ( #195 ) ) ;
#95 = CIRCLE ( 'NONE', #61, 5.000000000000000000 ) ;
#96 = ORIENTED_EDGE ( 'NONE', *, *, #140, .F. ) ;
#97 = CARTESIAN_POINT ( 'NONE',  ( 0.000000000000000000, 0.000000000000000000, 0.000000000000000000 ) ) ;
#98 = CC_DESIGN_PERSON_AND_ORGANIZATION_ASSIGNMENT ( #70, #162, ( #28 ) ) ;
#99 = CALENDAR_DATE ( 2024, 12, 7 ) ;
#100 = FACE_OUTER_BOUND ( 'NONE', #83, .T. ) ;
#101 = APPROVAL_ROLE ( '' ) ;
#102 = EDGE_LOOP ( 'NONE', ( #71 ) ) ;
#103 = PERSON_AND_ORGANIZATION_ROLE ( 'creator' ) ;
#104 = CLOSED_SHELL ( 'NONE', ( #57, #148, #86 ) ) ;
#105 = DIRECTION ( 'NONE',  ( -4.275831445896958607E-31, -1.000000000000000000, -1.224646799147353207E-16 ) ) ;
#106 = DIRECTION ( 'NONE',  ( -3.491481338843133355E-15, 1.224646799147353207E-16, -1.000000000000000000 ) ) ;
#107 = CC_DESIGN_PERSON_AND_ORGANIZATION_ASSIGNMENT ( #207, #60, ( #195 ) ) ;
#108 = PLANE ( 'NONE',  #4 ) ;
#109 = PERSON ( 'UNSPECIFIED', 'UNSPECIFIED', 'UNSPECIFIED', ('UNSPECIFIED'), ('UNSPECIFIED'), ('UNSPECIFIED') ) ;
#110 = APPLICATION_CONTEXT ( 'configuration controlled 3d designs of mechanical parts and assemblies' ) ;
#111 = DIRECTION ( 'NONE',  ( 4.275831445896959482E-31, 1.000000000000000000, 1.224646799147353454E-16 ) ) ;
#112 = ORIENTED_EDGE ( 'NONE', *, *, #36, .F. ) ;
#113 = DIRECTION ( 'NONE',  ( -3.491481338843133355E-15, 1.224646799147353207E-16, -1.000000000000000000 ) ) ;
#114 = VERTEX_POINT ( 'NONE', #22 ) ;
#115 = MECHANICAL_CONTEXT ( 'NONE', #217, 'mechanical' ) ;
#116 = LOCAL_TIME ( 11, 23, 16.00000000000000000, #141 ) ;
#117 = EDGE_LOOP ( 'NONE', ( #53 ) ) ;
#118 = PRODUCT_DEFINITION ( 'UNKNOWN', '', #28, #184 ) ;
#119 = DIRECTION ( 'NONE',  ( -3.491481338843133355E-15, 1.224646799147353207E-16, -1.000000000000000000 ) ) ;
#120 = DIRECTION ( 'NONE',  ( -3.491481338843133355E-15, 1.224646799147353207E-16, -1.000000000000000000 ) ) ;
#121 = APPROVAL_DATE_TIME ( #237, #164 ) ;
#122 = AXIS2_PLACEMENT_3D ( 'NONE', #187, #152, #232 ) ;
#123 = CYLINDRICAL_SURFACE ( 'NONE', #39, 4.749999999999999112 ) ;
#124 = DATE_TIME_ROLE ( 'classification_date' ) ;
#125 = APPROVAL ( #208, 'UNSPECIFIED' ) ;
#126 = FACE_OUTER_BOUND ( 'NONE', #43, .T. ) ;
#127 = CC_DESIGN_SECURITY_CLASSIFICATION ( #32, ( #28 ) ) ;
#128 = CC_DESIGN_DATE_AND_TIME_ASSIGNMENT ( #155, #211, ( #118 ) ) ;
#129 = FACE_BOUND ( 'NONE', #78, .T. ) ;
#130 = CARTESIAN_POINT ( 'NONE',  ( 1.230747171942204602E-13, 4.999999999999990230, 35.25000000000000000 ) ) ;
#131 = APPLICATION_PROTOCOL_DEFINITION ( 'international standard', 'config_control_design', 1994, #110 ) ;
#132 = DIRECTION ( 'NONE',  ( 0.000000000000000000, -1.000000000000000000, 0.000000000000000000 ) ) ;
#133 = CARTESIAN_POINT ( 'NONE',  ( 4.189777606611760026E-14, 3.749399456654641830E-32, 12.00000000000000000 ) ) ;
#134 = ADVANCED_FACE ( 'NONE', ( #210, #190 ), #87, .T. ) ;
#135 = LOCAL_TIME ( 11, 23, 16.00000000000000000, #201 ) ;
#136 = CARTESIAN_POINT ( 'NONE',  ( 2.601153597438134034E-13, -9.123618653647779582E-15, 74.49999999999998579 ) ) ;
#137 = APPROVAL_STATUS ( 'not_yet_approved' ) ;
#138 = FACE_OUTER_BOUND ( 'NONE', #167, .T. ) ;
#139 = DIRECTION ( 'NONE',  ( 4.275831445896958607E-31, 1.000000000000000000, 1.224646799147353207E-16 ) ) ;
#140 = EDGE_CURVE ( 'NONE', #114, #114, #31, .T. ) ;
#141 = COORDINATED_UNIVERSAL_TIME_OFFSET ( 1, 0, .AHEAD. ) ;
#142 =( GEOMETRIC_REPRESENTATION_CONTEXT ( 3 ) GLOBAL_UNCERTAINTY_ASSIGNED_CONTEXT ( ( #223 ) ) GLOBAL_UNIT_ASSIGNED_CONTEXT ( ( #228, #35, #63 ) ) REPRESENTATION_CONTEXT ( 'NONE', 'WORKASPACE' ) );
#143 = CC_DESIGN_APPROVAL ( #34, ( #32 ) ) ;
#144 = DIRECTION ( 'NONE',  ( -3.491481338843133355E-15, 1.224646799147353207E-16, -1.000000000000000000 ) ) ;
#145 = CONICAL_SURFACE ( 'NONE', #166, 4.750000000000000000, 0.7853981633974380649 ) ;
#146 = VERTEX_POINT ( 'NONE', #62 ) ;
#147 = CARTESIAN_POINT ( 'NONE',  ( 0.000000000000000000, 5.000000000000000000, 0.000000000000000000 ) ) ;
#148 = ADVANCED_FACE ( 'NONE', ( #175, #100 ), #154, .T. ) ;
#149 = DIRECTION ( 'NONE',  ( -3.491481338843133355E-15, 1.224646799147353207E-16, -1.000000000000000000 ) ) ;
#150 = CIRCLE ( 'NONE', #197, 4.750000000000000000 ) ;
#151 = EDGE_LOOP ( 'NONE', ( #234 ) ) ;
#152 = DIRECTION ( 'NONE',  ( -3.491481338843133355E-15, 1.224646799147353207E-16, -1.000000000000000000 ) ) ;
#153 = CARTESIAN_POINT ( 'NONE',  ( 0.000000000000000000, 0.000000000000000000, 0.000000000000000000 ) ) ;
#154 = CYLINDRICAL_SURFACE ( 'NONE', #163, 5.000000000000000000 ) ;
#155 = DATE_AND_TIME ( #199, #79 ) ;
#156 = AXIS2_PLACEMENT_3D ( 'NONE', #97, #113, #111 ) ;
#157 = CARTESIAN_POINT ( 'NONE',  ( 1.222018468595096801E-13, -4.286263797015736496E-15, 35.00000000000000000 ) ) ;
#158 = APPROVAL_DATE_TIME ( #47, #125 ) ;
#159 = FACE_OUTER_BOUND ( 'NONE', #18, .T. ) ;
#160 = PERSON_AND_ORGANIZATION_ROLE ( 'classification_officer' ) ;
#161 = FACE_OUTER_BOUND ( 'NONE', #102, .T. ) ;
#162 = PERSON_AND_ORGANIZATION_ROLE ( 'creator' ) ;
#163 = AXIS2_PLACEMENT_3D ( 'NONE', #171, #15, #67 ) ;
#164 = APPROVAL ( #54, 'UNSPECIFIED' ) ;
#165 = CARTESIAN_POINT ( 'NONE',  ( 1.222018468595096801E-13, -4.286263797015736496E-15, 35.00000000000000000 ) ) ;
#166 = AXIS2_PLACEMENT_3D ( 'NONE', #165, #75, #132 ) ;
#167 = EDGE_LOOP ( 'NONE', ( #59 ) ) ;
#168 = VERTEX_POINT ( 'NONE', #147 ) ;
#169 = ORIENTED_EDGE ( 'NONE', *, *, #74, .F. ) ;
#170 = PERSON_AND_ORGANIZATION ( #109, #203 ) ;
#171 = CARTESIAN_POINT ( 'NONE',  ( 0.000000000000000000, 0.000000000000000000, 0.000000000000000000 ) ) ;
#172 = CARTESIAN_POINT ( 'NONE',  ( -2.137915722948479128E-30, 7.498798913309288039E-32, -6.123233995736766282E-16 ) ) ;
#173 = APPROVAL_ROLE ( '' ) ;
#174 = CC_DESIGN_PERSON_AND_ORGANIZATION_ASSIGNMENT ( #68, #160, ( #32 ) ) ;
#175 = FACE_OUTER_BOUND ( 'NONE', #117, .T. ) ;
#176 = PERSON_AND_ORGANIZATION_ROLE ( 'design_supplier' ) ;
#177 = DIRECTION ( 'NONE',  ( 0.000000000000000000, 1.000000000000000000, 0.000000000000000000 ) ) ;
#178 = LOCAL_TIME ( 11, 23, 16.00000000000000000, #41 ) ;
#179 = ADVANCED_FACE ( 'NONE', ( #159 ), #238, .F. ) ;
#180 = PRODUCT_DEFINITION_SHAPE ( 'NONE', 'NONE',  #118 ) ;
#181 = EDGE_CURVE ( 'NONE', #17, #17, #150, .T. ) ;
#182 = AXIS2_PLACEMENT_3D ( 'NONE', #12, #198, #222 ) ;
#183 = APPROVAL_PERSON_ORGANIZATION ( #91, #34, #173 ) ;
#184 = DESIGN_CONTEXT ( 'detailed design', #110, 'design' ) ;
#185 = AXIS2_PLACEMENT_3D ( 'NONE', #24, #144, #50 ) ;
#186 = EDGE_LOOP ( 'NONE', ( #72 ) ) ;
#187 = CARTESIAN_POINT ( 'NONE',  ( 4.189777606611760026E-14, -1.469576158976823947E-15, 12.00000000000000000 ) ) ;
#188 = PERSON_AND_ORGANIZATION ( #109, #203 ) ;
#189 = CLOSED_SHELL ( 'NONE', ( #8, #55, #205, #202, #134, #179 ) ) ;
#190 = FACE_BOUND ( 'NONE', #81, .T. ) ;
#191 = COORDINATED_UNIVERSAL_TIME_OFFSET ( 1, 0, .AHEAD. ) ;
#192 = PLANE ( 'NONE',  #185 ) ;
#193 = EDGE_CURVE ( 'NONE', #168, #168, #95, .T. ) ;
#194 = DIRECTION ( 'NONE',  ( -4.275831445896958607E-31, -1.000000000000000000, -1.224646799147353207E-16 ) ) ;
#195 = PRODUCT ( '976411', '976411', '', ( #115 ) ) ;
#196 = DATE_AND_TIME ( #216, #44 ) ;
#197 = AXIS2_PLACEMENT_3D ( 'NONE', #157, #119, #177 ) ;
#198 = DIRECTION ( 'NONE',  ( -3.491481338843133355E-15, 1.224646799147353207E-16, -1.000000000000000000 ) ) ;
#199 = CALENDAR_DATE ( 2024, 12, 7 ) ;
#200 = DIRECTION ( 'NONE',  ( 0.000000000000000000, 1.000000000000000000, 0.000000000000000000 ) ) ;
#201 = COORDINATED_UNIVERSAL_TIME_OFFSET ( 1, 0, .AHEAD. ) ;
#202 = ADVANCED_FACE ( 'NONE', ( #161, #40 ), #58, .T. ) ;
#203 = ORGANIZATION ( 'UNSPECIFIED', 'UNSPECIFIED', '' ) ;
#204 = VERTEX_POINT ( 'NONE', #6 ) ;
#205 = ADVANCED_FACE ( 'NONE', ( #10, #129 ), #145, .T. ) ;
#206 = EDGE_LOOP ( 'NONE', ( #169 ) ) ;
#207 = PERSON_AND_ORGANIZATION ( #109, #203 ) ;
#208 = APPROVAL_STATUS ( 'not_yet_approved' ) ;
#209 = APPROVAL_ROLE ( '' ) ;
#210 = FACE_OUTER_BOUND ( 'NONE', #206, .T. ) ;
#211 = DATE_TIME_ROLE ( 'creation_date' ) ;
#212 = CC_DESIGN_APPROVAL ( #125, ( #118 ) ) ;
#213 = APPROVAL_PERSON_ORGANIZATION ( #170, #164, #101 ) ;
#214 = EDGE_CURVE ( 'NONE', #21, #21, #229, .T. ) ;
#215 = CARTESIAN_POINT ( 'NONE',  ( 2.618611004132350143E-13, 3.374459510989161007E-32, 75.00000000000000000 ) ) ;
#216 = CALENDAR_DATE ( 2024, 12, 7 ) ;
#217 = APPLICATION_CONTEXT ( 'configuration controlled 3d designs of mechanical parts and assemblies' ) ;
#218 = PLANE ( 'NONE',  #51 ) ;
#219 = PERSON_AND_ORGANIZATION ( #109, #203 ) ;
#220 = ORIENTED_EDGE ( 'NONE', *, *, #193, .T. ) ;
#221 = AXIS2_PLACEMENT_3D ( 'NONE', #215, #106, #46 ) ;
#222 = DIRECTION ( 'NONE',  ( 0.000000000000000000, 1.000000000000000000, 0.000000000000000000 ) ) ;
#223 = UNCERTAINTY_MEASURE_WITH_UNIT (LENGTH_MEASURE( 1.000000000000000082E-05 ), #228, 'distance_accuracy_value', 'NONE');
#224 = CC_DESIGN_APPROVAL ( #164, ( #28 ) ) ;
#225 = AXIS2_PLACEMENT_3D ( 'NONE', #136, #120, #200 ) ;
#226 = CARTESIAN_POINT ( 'NONE',  ( 1.222018468595096801E-13, 4.749999999999995559, 35.00000000000000000 ) ) ;
#227 = CC_DESIGN_PERSON_AND_ORGANIZATION_ASSIGNMENT ( #84, #176, ( #28 ) ) ;
#228 =( LENGTH_UNIT ( ) NAMED_UNIT ( * ) SI_UNIT ( .MILLI., .METRE. ) );
#229 = CIRCLE ( 'NONE', #66, 4.999999999999994671 ) ;
#230 = CARTESIAN_POINT ( 'NONE',  ( 0.000000000000000000, 0.000000000000000000, 0.000000000000000000 ) ) ;
#231 = EDGE_LOOP ( 'NONE', ( #5 ) ) ;
#232 = DIRECTION ( 'NONE',  ( 0.000000000000000000, 1.000000000000000000, 0.000000000000000000 ) ) ;
#233 = MANIFOLD_SOLID_BREP ( 'Corps-Déplacer/Copier1[2]', #104 ) ;
#234 = ORIENTED_EDGE ( 'NONE', *, *, #36, .T. ) ;
#235 = MANIFOLD_SOLID_BREP ( 'Corps-Déplacer/Copier1[1]', #189 ) ;
#236 = CARTESIAN_POINT ( 'NONE',  ( 2.618611004132350143E-13, -9.184850993605148733E-15, 75.00000000000000000 ) ) ;
#237 = DATE_AND_TIME ( #49, #116 ) ;
#238 = PLANE ( 'NONE',  #221 ) ;
#239 = DIRECTION ( 'NONE',  ( 3.491481338843133355E-15, -1.224646799147353207E-16, 1.000000000000000000 ) ) ;
#240 = CALENDAR_DATE ( 2024, 12, 7 ) ;
#241 = FACE_OUTER_BOUND ( 'NONE', #151, .T. ) ;
#242 = EDGE_CURVE ( 'NONE', #82, #82, #93, .T. ) ;
#243 = APPROVAL_PERSON_ORGANIZATION ( #188, #125, #209 ) ;
ENDSEC;
END-ISO-10303-21;
