ISO-10303-21;
HEADER;
FILE_DESCRIPTION (( 'STEP AP203' ),
    '1' );
FILE_NAME ('976410.step',
    '2024-07-12T09:23:15',
    ( '' ),
    ( '' ),
    'SwSTEP 2.0',
    'SolidWorks 2022',
    '' );
FILE_SCHEMA (( 'CONFIG_CONTROL_DESIGN' ));
ENDSEC;

DATA;
#1 = ADVANCED_FACE ( 'NONE', ( #119 ), #165, .F. ) ;
#2 = CIRCLE ( 'NONE', #139, 4.750000000000000000 ) ;
#3 = CC_DESIGN_APPROVAL ( #200, ( #207 ) ) ;
#4 = PERSON_AND_ORGANIZATION ( #224, #26 ) ;
#5 = DIRECTION ( 'NONE',  ( -3.491481338843133355E-15, 1.224646799147353207E-16, -1.000000000000000000 ) ) ;
#6 = APPROVAL_STATUS ( 'not_yet_approved' ) ;
#7 = DIRECTION ( 'NONE',  ( 4.275831445896958607E-31, 1.000000000000000000, 1.224646799147353207E-16 ) ) ;
#8 = ADVANCED_FACE ( 'NONE', ( #61 ), #178, .T. ) ;
#9 = DIRECTION ( 'NONE',  ( -3.491481338843133355E-15, 1.224646799147353207E-16, -1.000000000000000000 ) ) ;
#10 = DATE_AND_TIME ( #116, #177 ) ;
#11 = VERTEX_POINT ( 'NONE', #208 ) ;
#12 =( NAMED_UNIT ( * ) PLANE_ANGLE_UNIT ( ) SI_UNIT ( $, .RADIAN. ) );
#13 = CARTESIAN_POINT ( 'NONE',  ( 2.793185071074506684E-14, 4.999999999999999112, 8.000000000000000000 ) ) ;
#14 = DIRECTION ( 'NONE',  ( 0.000000000000000000, 1.000000000000000000, 0.000000000000000000 ) ) ;
#15 = ADVANCED_FACE ( 'NONE', ( #231, #39 ), #117, .T. ) ;
#16 = DIRECTION ( 'NONE',  ( -3.491481338843133355E-15, 1.224646799147353207E-16, -1.000000000000000000 ) ) ;
#17 = ADVANCED_BREP_SHAPE_REPRESENTATION ( '976410', ( #161, #71, #211 ), #56 ) ;
#18 = ADVANCED_FACE ( 'NONE', ( #180 ), #135, .F. ) ;
#19 = EDGE_LOOP ( 'NONE', ( #236 ) ) ;
#20 = PERSON_AND_ORGANIZATION_ROLE ( 'classification_officer' ) ;
#21 = AXIS2_PLACEMENT_3D ( 'NONE', #99, #121, #198 ) ;
#22 = EDGE_LOOP ( 'NONE', ( #74 ) ) ;
#23 = CALENDAR_DATE ( 2024, 12, 7 ) ;
#24 = DIRECTION ( 'NONE',  ( 4.275831445896958607E-31, 1.000000000000000000, 1.224646799147353207E-16 ) ) ;
#25 = DIRECTION ( 'NONE',  ( 3.491481338843133355E-15, -1.224646799147353207E-16, 1.000000000000000000 ) ) ;
#26 = ORGANIZATION ( 'UNSPECIFIED', 'UNSPECIFIED', '' ) ;
#27 = ORIENTED_EDGE ( 'NONE', *, *, #68, .F. ) ;
#28 = CALENDAR_DATE ( 2024, 12, 7 ) ;
#29 = DIRECTION ( 'NONE',  ( -3.491481338843133355E-15, 1.224646799147353207E-16, -1.000000000000000000 ) ) ;
#30 = AXIS2_PLACEMENT_3D ( 'NONE', #201, #5, #216 ) ;
#31 = AXIS2_PLACEMENT_3D ( 'NONE', #184, #105, #90 ) ;
#32 = CC_DESIGN_DATE_AND_TIME_ASSIGNMENT ( #237, #43, ( #191 ) ) ;
#33 = CARTESIAN_POINT ( 'NONE',  ( 5.586370142149013368E-14, 4.749999999999998224, 16.00000000000000000 ) ) ;
#34 = DIRECTION ( 'NONE',  ( 0.000000000000000000, 1.000000000000000000, 0.000000000000000000 ) ) ;
#35 = DIRECTION ( 'NONE',  ( 1.000000000000000000, 0.000000000000000000, 0.000000000000000000 ) ) ;
#36 = AXIS2_PLACEMENT_3D ( 'NONE', #79, #160, #24 ) ;
#37 = CLOSED_SHELL ( 'NONE', ( #66, #106, #8 ) ) ;
#38 = AXIS2_PLACEMENT_3D ( 'NONE', #239, #171, #34 ) ;
#39 = FACE_BOUND ( 'NONE', #229, .T. ) ;
#40 = COORDINATED_UNIVERSAL_TIME_OFFSET ( 1, 0, .AHEAD. ) ;
#41 = EDGE_LOOP ( 'NONE', ( #194 ) ) ;
#42 = EDGE_LOOP ( 'NONE', ( #182 ) ) ;
#43 = DATE_TIME_ROLE ( 'creation_date' ) ;
#44 = PLANE ( 'NONE',  #92 ) ;
#45 = PERSON_AND_ORGANIZATION_ROLE ( 'creator' ) ;
#46 = EDGE_LOOP ( 'NONE', ( #59 ) ) ;
#47 = CARTESIAN_POINT ( 'NONE',  ( 2.618611004132350143E-13, 4.499999999999984901, 75.00000000000000000 ) ) ;
#48 = DIRECTION ( 'NONE',  ( -3.491481338843133355E-15, 1.224646799147353207E-16, -1.000000000000000000 ) ) ;
#49 = CARTESIAN_POINT ( 'NONE',  ( 0.000000000000000000, 0.000000000000000000, 0.000000000000000000 ) ) ;
#50 = CC_DESIGN_PERSON_AND_ORGANIZATION_ASSIGNMENT ( #98, #45, ( #196 ) ) ;
#51 = FACE_OUTER_BOUND ( 'NONE', #137, .T. ) ;
#52 = APPROVAL_PERSON_ORGANIZATION ( #100, #200, #75 ) ;
#53 = DIRECTION ( 'NONE',  ( -3.491481338843133355E-15, 1.224646799147353207E-16, -1.000000000000000000 ) ) ;
#54 = DIRECTION ( 'NONE',  ( 0.000000000000000000, 0.000000000000000000, 1.000000000000000000 ) ) ;
#55 = CIRCLE ( 'NONE', #36, 5.000000000000000000 ) ;
#56 =( GEOMETRIC_REPRESENTATION_CONTEXT ( 3 ) GLOBAL_UNCERTAINTY_ASSIGNED_CONTEXT ( ( #193 ) ) GLOBAL_UNIT_ASSIGNED_CONTEXT ( ( #124, #12, #67 ) ) REPRESENTATION_CONTEXT ( 'NONE', 'WORKASPACE' ) );
#57 = CC_DESIGN_PERSON_AND_ORGANIZATION_ASSIGNMENT ( #82, #63, ( #196 ) ) ;
#58 = AXIS2_PLACEMENT_3D ( 'NONE', #213, #122, #153 ) ;
#59 = ORIENTED_EDGE ( 'NONE', *, *, #128, .F. ) ;
#60 = COORDINATED_UNIVERSAL_TIME_OFFSET ( 1, 0, .AHEAD. ) ;
#61 = FACE_OUTER_BOUND ( 'NONE', #41, .T. ) ;
#62 = SECURITY_CLASSIFICATION_LEVEL ( 'unclassified' ) ;
#63 = PERSON_AND_ORGANIZATION_ROLE ( 'design_supplier' ) ;
#64 = ORIENTED_EDGE ( 'NONE', *, *, #93, .T. ) ;
#65 = ORIENTED_EDGE ( 'NONE', *, *, #128, .T. ) ;
#66 = ADVANCED_FACE ( 'NONE', ( #97 ), #44, .T. ) ;
#67 =( NAMED_UNIT ( * ) SI_UNIT ( $, .STERADIAN. ) SOLID_ANGLE_UNIT ( ) );
#68 = EDGE_CURVE ( 'NONE', #150, #150, #55, .T. ) ;
#69 = DIRECTION ( 'NONE',  ( -3.491481338843133355E-15, 1.224646799147353207E-16, -1.000000000000000000 ) ) ;
#70 = DIRECTION ( 'NONE',  ( -3.491481338843133355E-15, 1.224646799147353207E-16, -1.000000000000000000 ) ) ;
#71 = MANIFOLD_SOLID_BREP ( 'Corps-Déplacer/Copier1[2]', #37 ) ;
#72 = EDGE_CURVE ( 'NONE', #183, #183, #175, .T. ) ;
#73 = AXIS2_PLACEMENT_3D ( 'NONE', #166, #16, #241 ) ;
#74 = ORIENTED_EDGE ( 'NONE', *, *, #93, .F. ) ;
#75 = APPROVAL_ROLE ( '' ) ;
#76 = CARTESIAN_POINT ( 'NONE',  ( 2.793185071074506684E-14, 3.561929483821910450E-32, 8.000000000000000000 ) ) ;
#77 = APPROVAL_ROLE ( '' ) ;
#78 = APPROVAL ( #234, 'UNSPECIFIED' ) ;
#79 = CARTESIAN_POINT ( 'NONE',  ( -2.137915722948479128E-30, 7.498798913309288039E-32, -6.123233995736766282E-16 ) ) ;
#80 = DATE_AND_TIME ( #174, #226 ) ;
#81 = EDGE_LOOP ( 'NONE', ( #96 ) ) ;
#82 = PERSON_AND_ORGANIZATION ( #224, #26 ) ;
#83 = CC_DESIGN_APPROVAL ( #78, ( #196 ) ) ;
#84 = ORIENTED_EDGE ( 'NONE', *, *, #113, .F. ) ;
#85 = APPROVAL_DATE_TIME ( #80, #78 ) ;
#86 = FACE_BOUND ( 'NONE', #197, .T. ) ;
#87 = FACE_OUTER_BOUND ( 'NONE', #81, .T. ) ;
#88 = CC_DESIGN_PERSON_AND_ORGANIZATION_ASSIGNMENT ( #4, #179, ( #151 ) ) ;
#89 = VERTEX_POINT ( 'NONE', #47 ) ;
#90 = DIRECTION ( 'NONE',  ( 0.000000000000000000, 1.000000000000000000, 0.000000000000000000 ) ) ;
#91 = FACE_OUTER_BOUND ( 'NONE', #212, .T. ) ;
#92 = AXIS2_PLACEMENT_3D ( 'NONE', #233, #9, #7 ) ;
#93 = EDGE_CURVE ( 'NONE', #144, #144, #152, .T. ) ;
#94 = CC_DESIGN_PERSON_AND_ORGANIZATION_ASSIGNMENT ( #181, #220, ( #191 ) ) ;
#95 = DESIGN_CONTEXT ( 'detailed design', #159, 'design' ) ;
#96 = ORIENTED_EDGE ( 'NONE', *, *, #148, .T. ) ;
#97 = FACE_OUTER_BOUND ( 'NONE', #42, .T. ) ;
#98 = PERSON_AND_ORGANIZATION ( #224, #26 ) ;
#99 = CARTESIAN_POINT ( 'NONE',  ( 5.586370142149013368E-14, -1.959434878635765131E-15, 16.00000000000000000 ) ) ;
#100 = PERSON_AND_ORGANIZATION ( #224, #26 ) ;
#101 = EDGE_LOOP ( 'NONE', ( #163 ) ) ;
#102 = SHAPE_DEFINITION_REPRESENTATION ( #172, #17 ) ;
#103 = AXIS2_PLACEMENT_3D ( 'NONE', #168, #53, #240 ) ;
#104 = ORIENTED_EDGE ( 'NONE', *, *, #72, .F. ) ;
#105 = DIRECTION ( 'NONE',  ( -3.491481338843133355E-15, 1.224646799147353207E-16, -1.000000000000000000 ) ) ;
#106 = ADVANCED_FACE ( 'NONE', ( #129, #126 ), #209, .T. ) ;
#107 = CARTESIAN_POINT ( 'NONE',  ( 2.793185071074506684E-14, -9.797174393178825657E-16, 8.000000000000000000 ) ) ;
#108 = AXIS2_PLACEMENT_3D ( 'NONE', #206, #29, #169 ) ;
#109 = DIRECTION ( 'NONE',  ( 0.000000000000000000, -1.000000000000000000, 0.000000000000000000 ) ) ;
#110 = EDGE_CURVE ( 'NONE', #170, #170, #185, .T. ) ;
#111 = FACE_OUTER_BOUND ( 'NONE', #22, .T. ) ;
#112 = AXIS2_PLACEMENT_3D ( 'NONE', #76, #195, #219 ) ;
#113 = EDGE_CURVE ( 'NONE', #204, #204, #2, .T. ) ;
#114 = LOCAL_TIME ( 11, 23, 15.00000000000000000, #199 ) ;
#115 = EDGE_LOOP ( 'NONE', ( #27 ) ) ;
#116 = CALENDAR_DATE ( 2024, 12, 7 ) ;
#117 = CONICAL_SURFACE ( 'NONE', #30, 4.499999999999994671, 0.7853981633974344012 ) ;
#118 = LOCAL_TIME ( 11, 23, 15.00000000000000000, #203 ) ;
#119 = FACE_OUTER_BOUND ( 'NONE', #46, .T. ) ;
#120 = CALENDAR_DATE ( 2024, 12, 7 ) ;
#121 = DIRECTION ( 'NONE',  ( -3.491481338843133355E-15, 1.224646799147353207E-16, -1.000000000000000000 ) ) ;
#122 = DIRECTION ( 'NONE',  ( -3.491481338843133355E-15, 1.224646799147353207E-16, -1.000000000000000000 ) ) ;
#123 = APPROVAL_DATE_TIME ( #10, #125 ) ;
#124 =( LENGTH_UNIT ( ) NAMED_UNIT ( * ) SI_UNIT ( .MILLI., .METRE. ) );
#125 = APPROVAL ( #6, 'UNSPECIFIED' ) ;
#126 = FACE_OUTER_BOUND ( 'NONE', #115, .T. ) ;
#127 = CARTESIAN_POINT ( 'NONE',  ( 5.586370142149013368E-14, -1.959434878635765131E-15, 16.00000000000000000 ) ) ;
#128 = EDGE_CURVE ( 'NONE', #89, #89, #173, .T. ) ;
#129 = FACE_OUTER_BOUND ( 'NONE', #101, .T. ) ;
#130 = MECHANICAL_CONTEXT ( 'NONE', #156, 'mechanical' ) ;
#131 = AXIS2_PLACEMENT_3D ( 'NONE', #238, #70, #14 ) ;
#132 = ADVANCED_FACE ( 'NONE', ( #51, #221 ), #225, .T. ) ;
#133 = APPROVAL_PERSON_ORGANIZATION ( #217, #78, #158 ) ;
#134 = EDGE_LOOP ( 'NONE', ( #176 ) ) ;
#135 = PLANE ( 'NONE',  #112 ) ;
#136 = APPROVAL_DATE_TIME ( #230, #200 ) ;
#137 = EDGE_LOOP ( 'NONE', ( #140 ) ) ;
#138 = DATE_TIME_ROLE ( 'classification_date' ) ;
#139 = AXIS2_PLACEMENT_3D ( 'NONE', #107, #69, #147 ) ;
#140 = ORIENTED_EDGE ( 'NONE', *, *, #72, .T. ) ;
#141 = APPLICATION_PROTOCOL_DEFINITION ( 'international standard', 'config_control_design', 1994, #159 ) ;
#142 = DIRECTION ( 'NONE',  ( -4.275831445896958607E-31, -1.000000000000000000, -1.224646799147353207E-16 ) ) ;
#143 = PERSON_AND_ORGANIZATION ( #224, #26 ) ;
#144 = VERTEX_POINT ( 'NONE', #205 ) ;
#145 = APPROVAL_PERSON_ORGANIZATION ( #162, #125, #77 ) ;
#146 = CYLINDRICAL_SURFACE ( 'NONE', #103, 4.999999999999993783 ) ;
#147 = DIRECTION ( 'NONE',  ( 0.000000000000000000, 1.000000000000000000, 0.000000000000000000 ) ) ;
#148 = EDGE_CURVE ( 'NONE', #11, #11, #154, .T. ) ;
#149 = CLOSED_SHELL ( 'NONE', ( #18, #132, #210, #235, #15, #1 ) ) ;
#150 = VERTEX_POINT ( 'NONE', #188 ) ;
#151 = PRODUCT ( '976410', '976410', '', ( #130 ) ) ;
#152 = CIRCLE ( 'NONE', #131, 4.999999999999992006 ) ;
#153 = DIRECTION ( 'NONE',  ( 4.275831445896958607E-31, 1.000000000000000000, 1.224646799147353207E-16 ) ) ;
#154 = CIRCLE ( 'NONE', #38, 4.999999999999994671 ) ;
#155 = DATE_AND_TIME ( #120, #190 ) ;
#156 = APPLICATION_CONTEXT ( 'configuration controlled 3d designs of mechanical parts and assemblies' ) ;
#157 = CARTESIAN_POINT ( 'NONE',  ( 2.793185071074506684E-14, 3.749399456654642925E-32, 8.000000000000000000 ) ) ;
#158 = APPROVAL_ROLE ( '' ) ;
#159 = APPLICATION_CONTEXT ( 'configuration controlled 3d designs of mechanical parts and assemblies' ) ;
#160 = DIRECTION ( 'NONE',  ( -3.491481338843133355E-15, 1.224646799147353207E-16, -1.000000000000000000 ) ) ;
#161 = MANIFOLD_SOLID_BREP ( 'Corps-Déplacer/Copier1[1]', #149 ) ;
#162 = PERSON_AND_ORGANIZATION ( #224, #26 ) ;
#163 = ORIENTED_EDGE ( 'NONE', *, *, #110, .T. ) ;
#164 = AXIS2_PLACEMENT_3D ( 'NONE', #49, #48, #222 ) ;
#165 = PLANE ( 'NONE',  #58 ) ;
#166 = CARTESIAN_POINT ( 'NONE',  ( 0.000000000000000000, 0.000000000000000000, 0.000000000000000000 ) ) ;
#167 = PRODUCT_RELATED_PRODUCT_CATEGORY ( 'detail', '', ( #151 ) ) ;
#168 = CARTESIAN_POINT ( 'NONE',  ( 0.000000000000000000, 0.000000000000000000, 0.000000000000000000 ) ) ;
#169 = DIRECTION ( 'NONE',  ( 0.000000000000000000, 1.000000000000000000, 0.000000000000000000 ) ) ;
#170 = VERTEX_POINT ( 'NONE', #13 ) ;
#171 = DIRECTION ( 'NONE',  ( -3.491481338843133355E-15, 1.224646799147353207E-16, -1.000000000000000000 ) ) ;
#172 = PRODUCT_DEFINITION_SHAPE ( 'NONE', 'NONE',  #191 ) ;
#173 = CIRCLE ( 'NONE', #31, 4.499999999999994671 ) ;
#174 = CALENDAR_DATE ( 2024, 12, 7 ) ;
#175 = CIRCLE ( 'NONE', #21, 4.750000000000000000 ) ;
#176 = ORIENTED_EDGE ( 'NONE', *, *, #148, .F. ) ;
#177 = LOCAL_TIME ( 11, 23, 15.00000000000000000, #60 ) ;
#178 = PLANE ( 'NONE',  #202 ) ;
#179 = PERSON_AND_ORGANIZATION_ROLE ( 'design_owner' ) ;
#180 = FACE_OUTER_BOUND ( 'NONE', #19, .T. ) ;
#181 = PERSON_AND_ORGANIZATION ( #224, #26 ) ;
#182 = ORIENTED_EDGE ( 'NONE', *, *, #68, .T. ) ;
#183 = VERTEX_POINT ( 'NONE', #33 ) ;
#184 = CARTESIAN_POINT ( 'NONE',  ( 2.618611004132350143E-13, -9.184850993605148733E-15, 75.00000000000000000 ) ) ;
#185 = CIRCLE ( 'NONE', #108, 5.000000000000000000 ) ;
#186 = CC_DESIGN_APPROVAL ( #125, ( #191 ) ) ;
#187 = CARTESIAN_POINT ( 'NONE',  ( 2.793185071074506684E-14, 4.749999999999999112, 8.000000000000000000 ) ) ;
#188 = CARTESIAN_POINT ( 'NONE',  ( 0.000000000000000000, 5.000000000000000000, 0.000000000000000000 ) ) ;
#189 = APPLICATION_PROTOCOL_DEFINITION ( 'international standard', 'config_control_design', 1994, #156 ) ;
#190 = LOCAL_TIME ( 11, 23, 15.00000000000000000, #40 ) ;
#191 = PRODUCT_DEFINITION ( 'UNKNOWN', '', #196, #95 ) ;
#192 = AXIS2_PLACEMENT_3D ( 'NONE', #127, #242, #109 ) ;
#193 = UNCERTAINTY_MEASURE_WITH_UNIT (LENGTH_MEASURE( 1.000000000000000082E-05 ), #124, 'distance_accuracy_value', 'NONE');
#194 = ORIENTED_EDGE ( 'NONE', *, *, #110, .F. ) ;
#195 = DIRECTION ( 'NONE',  ( 3.491481338843133355E-15, -1.224646799147353207E-16, 1.000000000000000000 ) ) ;
#196 = PRODUCT_DEFINITION_FORMATION_WITH_SPECIFIED_SOURCE ( 'ANY', '', #151, .NOT_KNOWN. ) ;
#197 = EDGE_LOOP ( 'NONE', ( #104 ) ) ;
#198 = DIRECTION ( 'NONE',  ( 0.000000000000000000, 1.000000000000000000, 0.000000000000000000 ) ) ;
#199 = COORDINATED_UNIVERSAL_TIME_OFFSET ( 1, 0, .AHEAD. ) ;
#200 = APPROVAL ( #215, 'UNSPECIFIED' ) ;
#201 = CARTESIAN_POINT ( 'NONE',  ( 2.618611004132350143E-13, -9.184850993605148733E-15, 75.00000000000000000 ) ) ;
#202 = AXIS2_PLACEMENT_3D ( 'NONE', #157, #25, #142 ) ;
#203 = COORDINATED_UNIVERSAL_TIME_OFFSET ( 1, 0, .AHEAD. ) ;
#204 = VERTEX_POINT ( 'NONE', #187 ) ;
#205 = CARTESIAN_POINT ( 'NONE',  ( 5.673657175620091387E-14, 4.999999999999990230, 16.24999999999999645 ) ) ;
#206 = CARTESIAN_POINT ( 'NONE',  ( 2.793185071074506684E-14, -9.797174393178825657E-16, 8.000000000000000000 ) ) ;
#207 = SECURITY_CLASSIFICATION ( '', '', #62 ) ;
#208 = CARTESIAN_POINT ( 'NONE',  ( 2.601153597438134034E-13, 4.999999999999985789, 74.49999999999998579 ) ) ;
#209 = CYLINDRICAL_SURFACE ( 'NONE', #73, 5.000000000000000000 ) ;
#210 = ADVANCED_FACE ( 'NONE', ( #91, #86 ), #223, .T. ) ;
#211 = AXIS2_PLACEMENT_3D ( 'NONE', #243, #54, #35 ) ;
#212 = EDGE_LOOP ( 'NONE', ( #64 ) ) ;
#213 = CARTESIAN_POINT ( 'NONE',  ( 2.618611004132350143E-13, 3.374459510989161007E-32, 75.00000000000000000 ) ) ;
#214 = EDGE_LOOP ( 'NONE', ( #84 ) ) ;
#215 = APPROVAL_STATUS ( 'not_yet_approved' ) ;
#216 = DIRECTION ( 'NONE',  ( 0.000000000000000000, 1.000000000000000000, 0.000000000000000000 ) ) ;
#217 = PERSON_AND_ORGANIZATION ( #224, #26 ) ;
#218 = CC_DESIGN_DATE_AND_TIME_ASSIGNMENT ( #155, #138, ( #207 ) ) ;
#219 = DIRECTION ( 'NONE',  ( -4.275831445896958607E-31, -1.000000000000000000, -1.224646799147353207E-16 ) ) ;
#220 = PERSON_AND_ORGANIZATION_ROLE ( 'creator' ) ;
#221 = FACE_OUTER_BOUND ( 'NONE', #214, .T. ) ;
#222 = DIRECTION ( 'NONE',  ( 4.275831445896959482E-31, 1.000000000000000000, 1.224646799147353207E-16 ) ) ;
#223 = CONICAL_SURFACE ( 'NONE', #192, 4.750000000000000000, 0.7853981633974396193 ) ;
#224 = PERSON ( 'UNSPECIFIED', 'UNSPECIFIED', 'UNSPECIFIED', ('UNSPECIFIED'), ('UNSPECIFIED'), ('UNSPECIFIED') ) ;
#225 = CYLINDRICAL_SURFACE ( 'NONE', #164, 4.750000000000000000 ) ;
#226 = LOCAL_TIME ( 11, 23, 15.00000000000000000, #232 ) ;
#227 = CC_DESIGN_PERSON_AND_ORGANIZATION_ASSIGNMENT ( #143, #20, ( #207 ) ) ;
#228 = CC_DESIGN_SECURITY_CLASSIFICATION ( #207, ( #196 ) ) ;
#229 = EDGE_LOOP ( 'NONE', ( #65 ) ) ;
#230 = DATE_AND_TIME ( #23, #114 ) ;
#231 = FACE_OUTER_BOUND ( 'NONE', #134, .T. ) ;
#232 = COORDINATED_UNIVERSAL_TIME_OFFSET ( 1, 0, .AHEAD. ) ;
#233 = CARTESIAN_POINT ( 'NONE',  ( -1.068957861474239564E-30, 3.749399456654644020E-32, -3.061616997868383141E-16 ) ) ;
#234 = APPROVAL_STATUS ( 'not_yet_approved' ) ;
#235 = ADVANCED_FACE ( 'NONE', ( #111, #87 ), #146, .T. ) ;
#236 = ORIENTED_EDGE ( 'NONE', *, *, #113, .T. ) ;
#237 = DATE_AND_TIME ( #28, #118 ) ;
#238 = CARTESIAN_POINT ( 'NONE',  ( 5.673657175620091387E-14, -1.990051048614448919E-15, 16.24999999999999645 ) ) ;
#239 = CARTESIAN_POINT ( 'NONE',  ( 2.601153597438134034E-13, -9.123618653647779582E-15, 74.49999999999998579 ) ) ;
#240 = DIRECTION ( 'NONE',  ( 4.275831445896959482E-31, 1.000000000000000000, 1.224646799147353207E-16 ) ) ;
#241 = DIRECTION ( 'NONE',  ( 4.275831445896958607E-31, 1.000000000000000000, 1.224646799147353207E-16 ) ) ;
#242 = DIRECTION ( 'NONE',  ( 3.491481338843133355E-15, -1.224646799147353207E-16, 1.000000000000000000 ) ) ;
#243 = CARTESIAN_POINT ( 'NONE',  ( 0.000000000000000000, 0.000000000000000000, 0.000000000000000000 ) ) ;
ENDSEC;
END-ISO-10303-21;
