ISO-10303-21;
HEADER;
FILE_DESCRIPTION (( 'STEP AP203' ),
    '1' );
FILE_NAME ('976399.step',
    '2024-07-12T09:23:14',
    ( '' ),
    ( '' ),
    'SwSTEP 2.0',
    'SolidWorks 2022',
    '' );
FILE_SCHEMA (( 'CONFIG_CONTROL_DESIGN' ));
ENDSEC;

DATA;
#1 = CARTESIAN_POINT ( 'NONE',  ( 0.000000000000000000, 0.000000000000000000, 0.000000000000000000 ) ) ;
#2 = CC_DESIGN_DATE_AND_TIME_ASSIGNMENT ( #114, #158, ( #53 ) ) ;
#3 = APPROVAL_STATUS ( 'not_yet_approved' ) ;
#4 = AXIS2_PLACEMENT_3D ( 'NONE', #124, #140, #48 ) ;
#5 = LOCAL_TIME ( 11, 23, 14.00000000000000000, #106 ) ;
#6 = SHAPE_DEFINITION_REPRESENTATION ( #86, #57 ) ;
#7 = ADVANCED_FACE ( 'NONE', ( #94, #129 ), #147, .T. ) ;
#8 = DIRECTION ( 'NONE',  ( 0.000000000000000000, 1.000000000000000000, 0.000000000000000000 ) ) ;
#9 = ORIENTED_EDGE ( 'NONE', *, *, #55, .F. ) ;
#10 = VERTEX_POINT ( 'NONE', #184 ) ;
#11 = ORIENTED_EDGE ( 'NONE', *, *, #134, .F. ) ;
#12 = LOCAL_TIME ( 11, 23, 14.00000000000000000, #167 ) ;
#13 = CALENDAR_DATE ( 2024, 12, 7 ) ;
#14 = APPLICATION_CONTEXT ( 'configuration controlled 3d designs of mechanical parts and assemblies' ) ;
#15 = APPROVAL_ROLE ( '' ) ;
#16 = ORIENTED_EDGE ( 'NONE', *, *, #190, .T. ) ;
#17 = AXIS2_PLACEMENT_3D ( 'NONE', #1, #154, #206 ) ;
#18 = PERSON_AND_ORGANIZATION ( #166, #102 ) ;
#19 = FACE_OUTER_BOUND ( 'NONE', #122, .T. ) ;
#20 = COORDINATED_UNIVERSAL_TIME_OFFSET ( 1, 0, .AHEAD. ) ;
#21 = VERTEX_POINT ( 'NONE', #54 ) ;
#22 = APPLICATION_PROTOCOL_DEFINITION ( 'international standard', 'config_control_design', 1994, #14 ) ;
#23 =( NAMED_UNIT ( * ) PLANE_ANGLE_UNIT ( ) SI_UNIT ( $, .RADIAN. ) );
#24 = AXIS2_PLACEMENT_3D ( 'NONE', #242, #205, #181 ) ;
#25 = CARTESIAN_POINT ( 'NONE',  ( 1.222018468595096801E-13, -4.286263797015736496E-15, 35.00000000000000000 ) ) ;
#26 = ORIENTED_EDGE ( 'NONE', *, *, #159, .T. ) ;
#27 = DIRECTION ( 'NONE',  ( -3.491481338843133355E-15, 1.224646799147353207E-16, -1.000000000000000000 ) ) ;
#28 = EDGE_LOOP ( 'NONE', ( #201 ) ) ;
#29 = CALENDAR_DATE ( 2024, 12, 7 ) ;
#30 = DIRECTION ( 'NONE',  ( 4.275831445896958607E-31, 1.000000000000000000, 1.224646799147353207E-16 ) ) ;
#31 = CLOSED_SHELL ( 'NONE', ( #91, #79, #69 ) ) ;
#32 = DESIGN_CONTEXT ( 'detailed design', #109, 'design' ) ;
#33 = AXIS2_PLACEMENT_3D ( 'NONE', #200, #176, #8 ) ;
#34 = CARTESIAN_POINT ( 'NONE',  ( 3.491481338843133355E-14, 3.374459510989177975E-32, 10.00000000000000000 ) ) ;
#35 = PRODUCT_DEFINITION ( 'UNKNOWN', '', #63, #32 ) ;
#36 = DIRECTION ( 'NONE',  ( -4.275831445896958607E-31, -1.000000000000000000, -1.224646799147353207E-16 ) ) ;
#37 = CALENDAR_DATE ( 2024, 12, 7 ) ;
#38 = PLANE ( 'NONE',  #4 ) ;
#39 = PERSON_AND_ORGANIZATION_ROLE ( 'creator' ) ;
#40 = DATE_TIME_ROLE ( 'creation_date' ) ;
#41 = AXIS2_PLACEMENT_3D ( 'NONE', #88, #73, #143 ) ;
#42 = DIRECTION ( 'NONE',  ( 0.000000000000000000, 0.000000000000000000, 1.000000000000000000 ) ) ;
#43 = LOCAL_TIME ( 11, 23, 14.00000000000000000, #146 ) ;
#44 = CARTESIAN_POINT ( 'NONE',  ( 0.000000000000000000, 0.000000000000000000, 0.000000000000000000 ) ) ;
#45 = EDGE_LOOP ( 'NONE', ( #180 ) ) ;
#46 = DIRECTION ( 'NONE',  ( -3.491481338843133355E-15, 1.224646799147353207E-16, -1.000000000000000000 ) ) ;
#47 = ORIENTED_EDGE ( 'NONE', *, *, #190, .F. ) ;
#48 = DIRECTION ( 'NONE',  ( 4.275831445896958607E-31, 1.000000000000000000, 1.224646799147353207E-16 ) ) ;
#49 =( GEOMETRIC_REPRESENTATION_CONTEXT ( 3 ) GLOBAL_UNCERTAINTY_ASSIGNED_CONTEXT ( ( #112 ) ) GLOBAL_UNIT_ASSIGNED_CONTEXT ( ( #186, #23, #78 ) ) REPRESENTATION_CONTEXT ( 'NONE', 'WORKASPACE' ) );
#50 = EDGE_LOOP ( 'NONE', ( #125 ) ) ;
#51 = APPROVAL_STATUS ( 'not_yet_approved' ) ;
#52 = DIRECTION ( 'NONE',  ( -4.275831445896958607E-31, -1.000000000000000000, -1.224646799147353207E-16 ) ) ;
#53 = SECURITY_CLASSIFICATION ( '', '', #131 ) ;
#54 = CARTESIAN_POINT ( 'NONE',  ( 1.222018468595096801E-13, 4.249999999999994671, 35.00000000000000000 ) ) ;
#55 = EDGE_CURVE ( 'NONE', #66, #66, #187, .T. ) ;
#56 = PERSON_AND_ORGANIZATION ( #166, #102 ) ;
#57 = ADVANCED_BREP_SHAPE_REPRESENTATION ( '976399', ( #220, #136, #107 ), #49 ) ;
#58 = CARTESIAN_POINT ( 'NONE',  ( 3.491481338843133355E-14, 3.186989538156444406E-32, 10.00000000000000000 ) ) ;
#59 = CARTESIAN_POINT ( 'NONE',  ( 2.618611004132350143E-13, 4.499999999999984901, 75.00000000000000000 ) ) ;
#60 = APPROVAL_DATE_TIME ( #82, #98 ) ;
#61 = EDGE_LOOP ( 'NONE', ( #204 ) ) ;
#62 = AXIS2_PLACEMENT_3D ( 'NONE', #34, #77, #52 ) ;
#63 = PRODUCT_DEFINITION_FORMATION_WITH_SPECIFIED_SOURCE ( 'ANY', '', #171, .NOT_KNOWN. ) ;
#64 = PERSON_AND_ORGANIZATION ( #166, #102 ) ;
#65 = CC_DESIGN_PERSON_AND_ORGANIZATION_ASSIGNMENT ( #92, #240, ( #53 ) ) ;
#66 = VERTEX_POINT ( 'NONE', #95 ) ;
#67 = APPROVAL_ROLE ( '' ) ;
#68 = APPLICATION_PROTOCOL_DEFINITION ( 'international standard', 'config_control_design', 1994, #109 ) ;
#69 = ADVANCED_FACE ( 'NONE', ( #239 ), #164, .T. ) ;
#70 = AXIS2_PLACEMENT_3D ( 'NONE', #153, #224, #132 ) ;
#71 = CC_DESIGN_SECURITY_CLASSIFICATION ( #53, ( #63 ) ) ;
#72 = FACE_OUTER_BOUND ( 'NONE', #198, .T. ) ;
#73 = DIRECTION ( 'NONE',  ( -3.491481338843133355E-15, 1.224646799147353207E-16, -1.000000000000000000 ) ) ;
#74 = CONICAL_SURFACE ( 'NONE', #33, 4.499999999999994671, 0.7853981633974344012 ) ;
#75 = ADVANCED_FACE ( 'NONE', ( #96 ), #241, .F. ) ;
#76 = ADVANCED_FACE ( 'NONE', ( #151 ), #222, .F. ) ;
#77 = DIRECTION ( 'NONE',  ( 3.491481338843133355E-15, -1.224646799147353207E-16, 1.000000000000000000 ) ) ;
#78 =( NAMED_UNIT ( * ) SI_UNIT ( $, .STERADIAN. ) SOLID_ANGLE_UNIT ( ) );
#79 = ADVANCED_FACE ( 'NONE', ( #81, #19 ), #165, .T. ) ;
#80 = DIRECTION ( 'NONE',  ( -3.491481338843133355E-15, 1.224646799147353207E-16, -1.000000000000000000 ) ) ;
#81 = FACE_OUTER_BOUND ( 'NONE', #110, .T. ) ;
#82 = DATE_AND_TIME ( #157, #226 ) ;
#83 = AXIS2_PLACEMENT_3D ( 'NONE', #189, #126, #207 ) ;
#84 = AXIS2_PLACEMENT_3D ( 'NONE', #199, #172, #174 ) ;
#85 = CC_DESIGN_PERSON_AND_ORGANIZATION_ASSIGNMENT ( #64, #39, ( #63 ) ) ;
#86 = PRODUCT_DEFINITION_SHAPE ( 'NONE', 'NONE',  #35 ) ;
#87 = DIRECTION ( 'NONE',  ( 4.275831445896958607E-31, 1.000000000000000000, 1.224646799147352961E-16 ) ) ;
#88 = CARTESIAN_POINT ( 'NONE',  ( 3.491481338843133355E-14, -1.224646799147353256E-15, 10.00000000000000000 ) ) ;
#89 = APPROVAL_PERSON_ORGANIZATION ( #18, #98, #15 ) ;
#90 = PERSON_AND_ORGANIZATION ( #166, #102 ) ;
#91 = ADVANCED_FACE ( 'NONE', ( #209 ), #38, .T. ) ;
#92 = PERSON_AND_ORGANIZATION ( #166, #102 ) ;
#93 = EDGE_LOOP ( 'NONE', ( #142 ) ) ;
#94 = FACE_OUTER_BOUND ( 'NONE', #45, .T. ) ;
#95 = CARTESIAN_POINT ( 'NONE',  ( 3.491481338843133355E-14, 4.249999999999996447, 10.00000000000000000 ) ) ;
#96 = FACE_OUTER_BOUND ( 'NONE', #93, .T. ) ;
#97 = PERSON_AND_ORGANIZATION ( #166, #102 ) ;
#98 = APPROVAL ( #115, 'UNSPECIFIED' ) ;
#99 = CONICAL_SURFACE ( 'NONE', #127, 4.249999999999999112, 0.7853981633974447263 ) ;
#100 = MECHANICAL_CONTEXT ( 'NONE', #14, 'mechanical' ) ;
#101 = AXIS2_PLACEMENT_3D ( 'NONE', #232, #27, #179 ) ;
#102 = ORGANIZATION ( 'UNSPECIFIED', 'UNSPECIFIED', '' ) ;
#103 = FACE_OUTER_BOUND ( 'NONE', #139, .T. ) ;
#104 = EDGE_LOOP ( 'NONE', ( #11 ) ) ;
#105 = FACE_BOUND ( 'NONE', #175, .T. ) ;
#106 = COORDINATED_UNIVERSAL_TIME_OFFSET ( 1, 0, .AHEAD. ) ;
#107 = AXIS2_PLACEMENT_3D ( 'NONE', #233, #42, #117 ) ;
#108 = DATE_AND_TIME ( #29, #5 ) ;
#109 = APPLICATION_CONTEXT ( 'configuration controlled 3d designs of mechanical parts and assemblies' ) ;
#110 = EDGE_LOOP ( 'NONE', ( #234 ) ) ;
#111 = CIRCLE ( 'NONE', #24, 4.499999999999994671 ) ;
#112 = UNCERTAINTY_MEASURE_WITH_UNIT (LENGTH_MEASURE( 1.000000000000000082E-05 ), #186, 'distance_accuracy_value', 'NONE');
#113 = VERTEX_POINT ( 'NONE', #116 ) ;
#114 = DATE_AND_TIME ( #37, #12 ) ;
#115 = APPROVAL_STATUS ( 'not_yet_approved' ) ;
#116 = CARTESIAN_POINT ( 'NONE',  ( 0.000000000000000000, 4.500000000000000000, 0.000000000000000000 ) ) ;
#117 = DIRECTION ( 'NONE',  ( 1.000000000000000000, 0.000000000000000000, 0.000000000000000000 ) ) ;
#118 = CC_DESIGN_APPROVAL ( #98, ( #63 ) ) ;
#119 = DIRECTION ( 'NONE',  ( 4.275831445896959482E-31, 1.000000000000000000, 1.224646799147353454E-16 ) ) ;
#120 = ORIENTED_EDGE ( 'NONE', *, *, #134, .T. ) ;
#121 = DIRECTION ( 'NONE',  ( -3.491481338843133355E-15, 1.224646799147353207E-16, -1.000000000000000000 ) ) ;
#122 = EDGE_LOOP ( 'NONE', ( #177 ) ) ;
#123 = DIRECTION ( 'NONE',  ( 0.000000000000000000, 1.000000000000000000, 0.000000000000000000 ) ) ;
#124 = CARTESIAN_POINT ( 'NONE',  ( -9.620620753268156427E-31, 3.374459510989179070E-32, -2.755455298081544285E-16 ) ) ;
#125 = ORIENTED_EDGE ( 'NONE', *, *, #55, .T. ) ;
#126 = DIRECTION ( 'NONE',  ( -3.491481338843133355E-15, 1.224646799147353207E-16, -1.000000000000000000 ) ) ;
#127 = AXIS2_PLACEMENT_3D ( 'NONE', #25, #231, #161 ) ;
#128 = DATE_AND_TIME ( #13, #43 ) ;
#129 = FACE_OUTER_BOUND ( 'NONE', #145, .T. ) ;
#130 = DIRECTION ( 'NONE',  ( 3.491481338843133355E-15, -1.224646799147353207E-16, 1.000000000000000000 ) ) ;
#131 = SECURITY_CLASSIFICATION_LEVEL ( 'unclassified' ) ;
#132 = DIRECTION ( 'NONE',  ( 4.275831445896958607E-31, 1.000000000000000000, 1.224646799147352961E-16 ) ) ;
#133 = CARTESIAN_POINT ( 'NONE',  ( 1.248204578636420459E-13, 4.999999999999990230, 35.75000000000000711 ) ) ;
#134 = EDGE_CURVE ( 'NONE', #193, #193, #208, .T. ) ;
#135 = AXIS2_PLACEMENT_3D ( 'NONE', #58, #130, #36 ) ;
#136 = MANIFOLD_SOLID_BREP ( 'Corps-Déplacer/Copier1[2]', #31 ) ;
#137 = PERSON_AND_ORGANIZATION ( #166, #102 ) ;
#138 = CC_DESIGN_APPROVAL ( #156, ( #53 ) ) ;
#139 = EDGE_LOOP ( 'NONE', ( #16 ) ) ;
#140 = DIRECTION ( 'NONE',  ( -3.491481338843133355E-15, 1.224646799147353207E-16, -1.000000000000000000 ) ) ;
#141 = CYLINDRICAL_SURFACE ( 'NONE', #237, 4.999999999999994671 ) ;
#142 = ORIENTED_EDGE ( 'NONE', *, *, #230, .F. ) ;
#143 = DIRECTION ( 'NONE',  ( 0.000000000000000000, 1.000000000000000000, 0.000000000000000000 ) ) ;
#144 = APPROVAL_ROLE ( '' ) ;
#145 = EDGE_LOOP ( 'NONE', ( #9 ) ) ;
#146 = COORDINATED_UNIVERSAL_TIME_OFFSET ( 1, 0, .AHEAD. ) ;
#147 = CYLINDRICAL_SURFACE ( 'NONE', #17, 4.249999999999998224 ) ;
#148 = AXIS2_PLACEMENT_3D ( 'NONE', #235, #121, #123 ) ;
#149 = PERSON_AND_ORGANIZATION_ROLE ( 'creator' ) ;
#150 = VERTEX_POINT ( 'NONE', #223 ) ;
#151 = FACE_OUTER_BOUND ( 'NONE', #50, .T. ) ;
#152 = PERSON_AND_ORGANIZATION_ROLE ( 'design_supplier' ) ;
#153 = CARTESIAN_POINT ( 'NONE',  ( 0.000000000000000000, 0.000000000000000000, 0.000000000000000000 ) ) ;
#154 = DIRECTION ( 'NONE',  ( -3.491481338843133355E-15, 1.224646799147353207E-16, -1.000000000000000000 ) ) ;
#155 = LOCAL_TIME ( 11, 23, 14.00000000000000000, #20 ) ;
#156 = APPROVAL ( #3, 'UNSPECIFIED' ) ;
#157 = CALENDAR_DATE ( 2024, 12, 7 ) ;
#158 = DATE_TIME_ROLE ( 'classification_date' ) ;
#159 = EDGE_CURVE ( 'NONE', #113, #113, #225, .T. ) ;
#160 = FACE_BOUND ( 'NONE', #61, .T. ) ;
#161 = DIRECTION ( 'NONE',  ( 0.000000000000000000, -1.000000000000000000, 0.000000000000000000 ) ) ;
#162 = EDGE_LOOP ( 'NONE', ( #120 ) ) ;
#163 = ADVANCED_FACE ( 'NONE', ( #214, #160 ), #99, .T. ) ;
#164 = PLANE ( 'NONE',  #62 ) ;
#165 = CYLINDRICAL_SURFACE ( 'NONE', #70, 4.500000000000000000 ) ;
#166 = PERSON ( 'UNSPECIFIED', 'UNSPECIFIED', 'UNSPECIFIED', ('UNSPECIFIED'), ('UNSPECIFIED'), ('UNSPECIFIED') ) ;
#167 = COORDINATED_UNIVERSAL_TIME_OFFSET ( 1, 0, .AHEAD. ) ;
#168 = CIRCLE ( 'NONE', #148, 4.999999999999994671 ) ;
#169 = DATE_AND_TIME ( #211, #155 ) ;
#170 = CC_DESIGN_APPROVAL ( #213, ( #35 ) ) ;
#171 = PRODUCT ( '976399', '976399', '', ( #100 ) ) ;
#172 = DIRECTION ( 'NONE',  ( -3.491481338843133355E-15, 1.224646799147353207E-16, -1.000000000000000000 ) ) ;
#173 = ADVANCED_FACE ( 'NONE', ( #178, #103 ), #141, .T. ) ;
#174 = DIRECTION ( 'NONE',  ( 0.000000000000000000, 1.000000000000000000, 0.000000000000000000 ) ) ;
#175 = EDGE_LOOP ( 'NONE', ( #216 ) ) ;
#176 = DIRECTION ( 'NONE',  ( -3.491481338843133355E-15, 1.224646799147353207E-16, -1.000000000000000000 ) ) ;
#177 = ORIENTED_EDGE ( 'NONE', *, *, #159, .F. ) ;
#178 = FACE_OUTER_BOUND ( 'NONE', #104, .T. ) ;
#179 = DIRECTION ( 'NONE',  ( 0.000000000000000000, 1.000000000000000000, 0.000000000000000000 ) ) ;
#180 = ORIENTED_EDGE ( 'NONE', *, *, #185, .T. ) ;
#181 = DIRECTION ( 'NONE',  ( 0.000000000000000000, 1.000000000000000000, 0.000000000000000000 ) ) ;
#182 = CC_DESIGN_DATE_AND_TIME_ASSIGNMENT ( #128, #40, ( #35 ) ) ;
#183 = APPROVAL_DATE_TIME ( #108, #213 ) ;
#184 = CARTESIAN_POINT ( 'NONE',  ( 2.601153597438134034E-13, 4.999999999999985789, 74.49999999999998579 ) ) ;
#185 = EDGE_CURVE ( 'NONE', #21, #21, #188, .T. ) ;
#186 =( LENGTH_UNIT ( ) NAMED_UNIT ( * ) SI_UNIT ( .MILLI., .METRE. ) );
#187 = CIRCLE ( 'NONE', #83, 4.249999999999997335 ) ;
#188 = CIRCLE ( 'NONE', #84, 4.249999999999999112 ) ;
#189 = CARTESIAN_POINT ( 'NONE',  ( 3.491481338843133355E-14, -1.224646799147353256E-15, 10.00000000000000000 ) ) ;
#190 = EDGE_CURVE ( 'NONE', #10, #10, #168, .T. ) ;
#191 = APPROVAL_PERSON_ORGANIZATION ( #97, #156, #67 ) ;
#192 = CC_DESIGN_PERSON_AND_ORGANIZATION_ASSIGNMENT ( #212, #195, ( #171 ) ) ;
#193 = VERTEX_POINT ( 'NONE', #133 ) ;
#194 = APPROVAL_DATE_TIME ( #169, #156 ) ;
#195 = PERSON_AND_ORGANIZATION_ROLE ( 'design_owner' ) ;
#196 = APPROVAL_PERSON_ORGANIZATION ( #137, #213, #144 ) ;
#197 = CC_DESIGN_PERSON_AND_ORGANIZATION_ASSIGNMENT ( #56, #152, ( #63 ) ) ;
#198 = EDGE_LOOP ( 'NONE', ( #47 ) ) ;
#199 = CARTESIAN_POINT ( 'NONE',  ( 1.222018468595096801E-13, -4.286263797015736496E-15, 35.00000000000000000 ) ) ;
#200 = CARTESIAN_POINT ( 'NONE',  ( 2.618611004132350143E-13, -9.184850993605148733E-15, 75.00000000000000000 ) ) ;
#201 = ORIENTED_EDGE ( 'NONE', *, *, #228, .F. ) ;
#202 = VERTEX_POINT ( 'NONE', #59 ) ;
#203 = DIRECTION ( 'NONE',  ( -3.491481338843133355E-15, 1.224646799147353207E-16, -1.000000000000000000 ) ) ;
#204 = ORIENTED_EDGE ( 'NONE', *, *, #185, .F. ) ;
#205 = DIRECTION ( 'NONE',  ( -3.491481338843133355E-15, 1.224646799147353207E-16, -1.000000000000000000 ) ) ;
#206 = DIRECTION ( 'NONE',  ( 4.275831445896958607E-31, 1.000000000000000000, 1.224646799147353454E-16 ) ) ;
#207 = DIRECTION ( 'NONE',  ( 0.000000000000000000, 1.000000000000000000, 0.000000000000000000 ) ) ;
#208 = CIRCLE ( 'NONE', #101, 4.999999999999994671 ) ;
#209 = FACE_OUTER_BOUND ( 'NONE', #218, .T. ) ;
#210 = ADVANCED_FACE ( 'NONE', ( #72, #105 ), #74, .T. ) ;
#211 = CALENDAR_DATE ( 2024, 12, 7 ) ;
#212 = PERSON_AND_ORGANIZATION ( #166, #102 ) ;
#213 = APPROVAL ( #51, 'UNSPECIFIED' ) ;
#214 = FACE_OUTER_BOUND ( 'NONE', #162, .T. ) ;
#215 = CARTESIAN_POINT ( 'NONE',  ( -1.924124150653631285E-30, 6.748919021978358140E-32, -5.510910596163088569E-16 ) ) ;
#216 = ORIENTED_EDGE ( 'NONE', *, *, #230, .T. ) ;
#217 = AXIS2_PLACEMENT_3D ( 'NONE', #243, #80, #30 ) ;
#218 = EDGE_LOOP ( 'NONE', ( #26 ) ) ;
#219 = PRODUCT_RELATED_PRODUCT_CATEGORY ( 'detail', '', ( #171 ) ) ;
#220 = MANIFOLD_SOLID_BREP ( 'Corps-Déplacer/Copier1[1]', #229 ) ;
#221 = CIRCLE ( 'NONE', #41, 4.500000000000000000 ) ;
#222 = PLANE ( 'NONE',  #135 ) ;
#223 = CARTESIAN_POINT ( 'NONE',  ( 3.491481338843133355E-14, 4.499999999999999112, 10.00000000000000000 ) ) ;
#224 = DIRECTION ( 'NONE',  ( -3.491481338843133355E-15, 1.224646799147353207E-16, -1.000000000000000000 ) ) ;
#225 = CIRCLE ( 'NONE', #236, 4.500000000000000000 ) ;
#226 = LOCAL_TIME ( 11, 23, 14.00000000000000000, #227 ) ;
#227 = COORDINATED_UNIVERSAL_TIME_OFFSET ( 1, 0, .AHEAD. ) ;
#228 = EDGE_CURVE ( 'NONE', #150, #150, #221, .T. ) ;
#229 = CLOSED_SHELL ( 'NONE', ( #76, #7, #163, #173, #210, #75 ) ) ;
#230 = EDGE_CURVE ( 'NONE', #202, #202, #111, .T. ) ;
#231 = DIRECTION ( 'NONE',  ( 3.491481338843133355E-15, -1.224646799147353207E-16, 1.000000000000000000 ) ) ;
#232 = CARTESIAN_POINT ( 'NONE',  ( 1.248204578636420459E-13, -4.378112306951787857E-15, 35.75000000000000711 ) ) ;
#233 = CARTESIAN_POINT ( 'NONE',  ( 0.000000000000000000, 0.000000000000000000, 0.000000000000000000 ) ) ;
#234 = ORIENTED_EDGE ( 'NONE', *, *, #228, .T. ) ;
#235 = CARTESIAN_POINT ( 'NONE',  ( 2.601153597438134034E-13, -9.123618653647779582E-15, 74.49999999999998579 ) ) ;
#236 = AXIS2_PLACEMENT_3D ( 'NONE', #215, #46, #87 ) ;
#237 = AXIS2_PLACEMENT_3D ( 'NONE', #44, #203, #119 ) ;
#238 = CC_DESIGN_PERSON_AND_ORGANIZATION_ASSIGNMENT ( #90, #149, ( #35 ) ) ;
#239 = FACE_OUTER_BOUND ( 'NONE', #28, .T. ) ;
#240 = PERSON_AND_ORGANIZATION_ROLE ( 'classification_officer' ) ;
#241 = PLANE ( 'NONE',  #217 ) ;
#242 = CARTESIAN_POINT ( 'NONE',  ( 2.618611004132350143E-13, -9.184850993605148733E-15, 75.00000000000000000 ) ) ;
#243 = CARTESIAN_POINT ( 'NONE',  ( 2.618611004132350143E-13, 3.374459510989161007E-32, 75.00000000000000000 ) ) ;
ENDSEC;
END-ISO-10303-21;
