ISO-10303-21;
HEADER;
FILE_DESCRIPTION (( 'STEP AP203' ),
    '1' );
FILE_NAME ('976398.step',
    '2024-07-12T09:23:14',
    ( '' ),
    ( '' ),
    'SwSTEP 2.0',
    'SolidWorks 2022',
    '' );
FILE_SCHEMA (( 'CONFIG_CONTROL_DESIGN' ));
ENDSEC;

DATA;
#1 = APPROVAL_STATUS ( 'not_yet_approved' ) ;
#2 = CC_DESIGN_PERSON_AND_ORGANIZATION_ASSIGNMENT ( #55, #80, ( #171 ) ) ;
#3 = APPROVAL_DATE_TIME ( #116, #12 ) ;
#4 = APPROVAL_PERSON_ORGANIZATION ( #110, #91, #17 ) ;
#5 = CALENDAR_DATE ( 2024, 12, 7 ) ;
#6 = ADVANCED_FACE ( 'NONE', ( #140, #178 ), #105, .T. ) ;
#7 = APPROVAL_STATUS ( 'not_yet_approved' ) ;
#8 = EDGE_LOOP ( 'NONE', ( #152 ) ) ;
#9 = UNCERTAINTY_MEASURE_WITH_UNIT (LENGTH_MEASURE( 1.000000000000000082E-05 ), #126, 'distance_accuracy_value', 'NONE');
#10 = AXIS2_PLACEMENT_3D ( 'NONE', #54, #238, #16 ) ;
#11 = ORIENTED_EDGE ( 'NONE', *, *, #53, .T. ) ;
#12 = APPROVAL ( #7, 'UNSPECIFIED' ) ;
#13 = DIRECTION ( 'NONE',  ( -3.491481338843133355E-15, 1.224646799147353207E-16, -1.000000000000000000 ) ) ;
#14 = CYLINDRICAL_SURFACE ( 'NONE', #157, 3.999999999999998224 ) ;
#15 = DIRECTION ( 'NONE',  ( -4.275831445896958607E-31, -1.000000000000000000, -1.224646799147353207E-16 ) ) ;
#16 = DIRECTION ( 'NONE',  ( 0.000000000000000000, 1.000000000000000000, 0.000000000000000000 ) ) ;
#17 = APPROVAL_ROLE ( '' ) ;
#18 = SECURITY_CLASSIFICATION_LEVEL ( 'unclassified' ) ;
#19 = EDGE_LOOP ( 'NONE', ( #81 ) ) ;
#20 = CC_DESIGN_APPROVAL ( #91, ( #154 ) ) ;
#21 = AXIS2_PLACEMENT_3D ( 'NONE', #138, #101, #141 ) ;
#22 = CARTESIAN_POINT ( 'NONE',  ( 4.364351673553916568E-13, -1.530808498934191561E-14, 125.0000000000000000 ) ) ;
#23 = CARTESIAN_POINT ( 'NONE',  ( 2.618611004132350143E-13, -9.184850993605148733E-15, 75.00000000000000000 ) ) ;
#24 = EDGE_LOOP ( 'NONE', ( #212 ) ) ;
#25 = EDGE_CURVE ( 'NONE', #32, #32, #147, .T. ) ;
#26 = DIRECTION ( 'NONE',  ( -3.491481338843133355E-15, 1.224646799147353207E-16, -1.000000000000000000 ) ) ;
#27 = EDGE_LOOP ( 'NONE', ( #82 ) ) ;
#28 = CARTESIAN_POINT ( 'NONE',  ( 0.000000000000000000, 0.000000000000000000, 0.000000000000000000 ) ) ;
#29 = CARTESIAN_POINT ( 'NONE',  ( 3.491481338843133355E-14, 2.774555597924432743E-32, 10.00000000000000000 ) ) ;
#30 = AXIS2_PLACEMENT_3D ( 'NONE', #103, #199, #125 ) ;
#31 = APPLICATION_PROTOCOL_DEFINITION ( 'international standard', 'config_control_design', 1994, #174 ) ;
#32 = VERTEX_POINT ( 'NONE', #188 ) ;
#33 = AXIS2_PLACEMENT_3D ( 'NONE', #47, #153, #120 ) ;
#34 = COORDINATED_UNIVERSAL_TIME_OFFSET ( 1, 0, .AHEAD. ) ;
#35 = PERSON_AND_ORGANIZATION ( #84, #42 ) ;
#36 = EDGE_LOOP ( 'NONE', ( #98 ) ) ;
#37 = DATE_AND_TIME ( #5, #176 ) ;
#38 = ORIENTED_EDGE ( 'NONE', *, *, #132, .F. ) ;
#39 = PERSON_AND_ORGANIZATION ( #84, #42 ) ;
#40 = CC_DESIGN_PERSON_AND_ORGANIZATION_ASSIGNMENT ( #52, #192, ( #154 ) ) ;
#41 = EDGE_LOOP ( 'NONE', ( #134 ) ) ;
#42 = ORGANIZATION ( 'UNSPECIFIED', 'UNSPECIFIED', '' ) ;
#43 = DIRECTION ( 'NONE',  ( 4.275831445896958607E-31, 1.000000000000000000, 1.224646799147353207E-16 ) ) ;
#44 = ADVANCED_FACE ( 'NONE', ( #68 ), #63, .T. ) ;
#45 = DIRECTION ( 'NONE',  ( -3.491481338843133355E-15, 1.224646799147353207E-16, -1.000000000000000000 ) ) ;
#46 = DIRECTION ( 'NONE',  ( 4.275831445896958607E-31, 1.000000000000000000, 1.224646799147353207E-16 ) ) ;
#47 = CARTESIAN_POINT ( 'NONE',  ( -1.710332578358783092E-30, 5.999039130647430431E-32, -4.898587196589412829E-16 ) ) ;
#48 = CARTESIAN_POINT ( 'NONE',  ( 4.346894266859700964E-13, 3.999999999999988010, 124.5000000000000000 ) ) ;
#49 = CC_DESIGN_PERSON_AND_ORGANIZATION_ASSIGNMENT ( #35, #191, ( #97 ) ) ;
#50 = VERTEX_POINT ( 'NONE', #48 ) ;
#51 = CIRCLE ( 'NONE', #177, 4.000000000000000000 ) ;
#52 = PERSON_AND_ORGANIZATION ( #84, #42 ) ;
#53 = EDGE_CURVE ( 'NONE', #111, #111, #222, .T. ) ;
#54 = CARTESIAN_POINT ( 'NONE',  ( 4.346894266859700964E-13, -1.524685264938454803E-14, 124.5000000000000000 ) ) ;
#55 = PERSON_AND_ORGANIZATION ( #84, #42 ) ;
#56 =( GEOMETRIC_REPRESENTATION_CONTEXT ( 3 ) GLOBAL_UNCERTAINTY_ASSIGNED_CONTEXT ( ( #9 ) ) GLOBAL_UNIT_ASSIGNED_CONTEXT ( ( #126, #163, #73 ) ) REPRESENTATION_CONTEXT ( 'NONE', 'WORKASPACE' ) );
#57 = CALENDAR_DATE ( 2024, 12, 7 ) ;
#58 = ADVANCED_BREP_SHAPE_REPRESENTATION ( '976398', ( #87, #166, #196 ), #56 ) ;
#59 = PERSON_AND_ORGANIZATION ( #84, #42 ) ;
#60 = EDGE_LOOP ( 'NONE', ( #11 ) ) ;
#61 = SHAPE_DEFINITION_REPRESENTATION ( #161, #58 ) ;
#62 = PERSON_AND_ORGANIZATION_ROLE ( 'creator' ) ;
#63 = PLANE ( 'NONE',  #30 ) ;
#64 = DIRECTION ( 'NONE',  ( 4.275831445896958607E-31, 1.000000000000000000, 1.224646799147353207E-16 ) ) ;
#65 = AXIS2_PLACEMENT_3D ( 'NONE', #86, #67, #15 ) ;
#66 = FACE_OUTER_BOUND ( 'NONE', #24, .T. ) ;
#67 = DIRECTION ( 'NONE',  ( 3.491481338843133355E-15, -1.224646799147353207E-16, 1.000000000000000000 ) ) ;
#68 = FACE_OUTER_BOUND ( 'NONE', #60, .T. ) ;
#69 = LOCAL_TIME ( 11, 23, 14.00000000000000000, #96 ) ;
#70 = DIRECTION ( 'NONE',  ( 3.491481338843133355E-15, -1.224646799147353207E-16, 1.000000000000000000 ) ) ;
#71 = AXIS2_PLACEMENT_3D ( 'NONE', #29, #70, #168 ) ;
#72 = APPROVAL ( #1, 'UNSPECIFIED' ) ;
#73 =( NAMED_UNIT ( * ) SI_UNIT ( $, .STERADIAN. ) SOLID_ANGLE_UNIT ( ) );
#74 = ADVANCED_FACE ( 'NONE', ( #217, #181 ), #14, .T. ) ;
#75 = APPROVAL_DATE_TIME ( #242, #91 ) ;
#76 = FACE_BOUND ( 'NONE', #231, .T. ) ;
#77 = DATE_AND_TIME ( #228, #69 ) ;
#78 = APPROVAL_ROLE ( '' ) ;
#79 = ORIENTED_EDGE ( 'NONE', *, *, #99, .T. ) ;
#80 = PERSON_AND_ORGANIZATION_ROLE ( 'design_supplier' ) ;
#81 = ORIENTED_EDGE ( 'NONE', *, *, #53, .F. ) ;
#82 = ORIENTED_EDGE ( 'NONE', *, *, #132, .T. ) ;
#83 = CARTESIAN_POINT ( 'NONE',  ( 0.000000000000000000, 0.000000000000000000, 0.000000000000000000 ) ) ;
#84 = PERSON ( 'UNSPECIFIED', 'UNSPECIFIED', 'UNSPECIFIED', ('UNSPECIFIED'), ('UNSPECIFIED'), ('UNSPECIFIED') ) ;
#85 = EDGE_LOOP ( 'NONE', ( #119 ) ) ;
#86 = CARTESIAN_POINT ( 'NONE',  ( 3.491481338843133355E-14, 2.999519565323713574E-32, 10.00000000000000000 ) ) ;
#87 = MANIFOLD_SOLID_BREP ( 'Corps-Déplacer/Copier1[1]', #145 ) ;
#88 = CC_DESIGN_APPROVAL ( #12, ( #97 ) ) ;
#89 = DIRECTION ( 'NONE',  ( 3.491481338843133355E-15, -1.224646799147353207E-16, 1.000000000000000000 ) ) ;
#90 = CARTESIAN_POINT ( 'NONE',  ( 4.364351673553916568E-13, 2.624579619658230013E-32, 125.0000000000000000 ) ) ;
#91 = APPROVAL ( #189, 'UNSPECIFIED' ) ;
#92 = CC_DESIGN_SECURITY_CLASSIFICATION ( #97, ( #171 ) ) ;
#93 = VERTEX_POINT ( 'NONE', #112 ) ;
#94 = AXIS2_PLACEMENT_3D ( 'NONE', #90, #108, #241 ) ;
#95 = CARTESIAN_POINT ( 'NONE',  ( 2.629085448148879101E-13, 3.999999999999984457, 75.29999999999999716 ) ) ;
#96 = COORDINATED_UNIVERSAL_TIME_OFFSET ( 1, 0, .AHEAD. ) ;
#97 = SECURITY_CLASSIFICATION ( '', '', #18 ) ;
#98 = ORIENTED_EDGE ( 'NONE', *, *, #99, .F. ) ;
#99 = EDGE_CURVE ( 'NONE', #186, #186, #127, .T. ) ;
#100 = COORDINATED_UNIVERSAL_TIME_OFFSET ( 1, 0, .AHEAD. ) ;
#101 = DIRECTION ( 'NONE',  ( -3.491481338843133355E-15, 1.224646799147353207E-16, -1.000000000000000000 ) ) ;
#102 = FACE_OUTER_BOUND ( 'NONE', #193, .T. ) ;
#103 = CARTESIAN_POINT ( 'NONE',  ( -8.551662891793915461E-31, 2.999519565323715216E-32, -2.449293598294706414E-16 ) ) ;
#104 = FACE_OUTER_BOUND ( 'NONE', #8, .T. ) ;
#105 = CYLINDRICAL_SURFACE ( 'NONE', #239, 4.000000000000000000 ) ;
#106 = CARTESIAN_POINT ( 'NONE',  ( 4.364351673553916568E-13, 3.499999999999988010, 125.0000000000000000 ) ) ;
#107 = LOCAL_TIME ( 11, 23, 14.00000000000000000, #100 ) ;
#108 = DIRECTION ( 'NONE',  ( -3.491481338843133355E-15, 1.224646799147353207E-16, -1.000000000000000000 ) ) ;
#109 = AXIS2_PLACEMENT_3D ( 'NONE', #124, #45, #46 ) ;
#110 = PERSON_AND_ORGANIZATION ( #84, #42 ) ;
#111 = VERTEX_POINT ( 'NONE', #226 ) ;
#112 = CARTESIAN_POINT ( 'NONE',  ( 3.491481338843133355E-14, 3.999999999999999112, 10.00000000000000000 ) ) ;
#113 = CONICAL_SURFACE ( 'NONE', #218, 3.500000000000003109, 0.7853981633974482790 ) ;
#114 = PRODUCT_RELATED_PRODUCT_CATEGORY ( 'detail', '', ( #135 ) ) ;
#115 = CC_DESIGN_PERSON_AND_ORGANIZATION_ASSIGNMENT ( #211, #62, ( #171 ) ) ;
#116 = DATE_AND_TIME ( #175, #107 ) ;
#117 = APPROVAL_ROLE ( '' ) ;
#118 = ADVANCED_FACE ( 'NONE', ( #136, #122 ), #131, .T. ) ;
#119 = ORIENTED_EDGE ( 'NONE', *, *, #180, .T. ) ;
#120 = DIRECTION ( 'NONE',  ( 4.275831445896958607E-31, 1.000000000000000000, 1.224646799147353207E-16 ) ) ;
#121 = AXIS2_PLACEMENT_3D ( 'NONE', #200, #221, #184 ) ;
#122 = FACE_BOUND ( 'NONE', #173, .T. ) ;
#123 = PLANE ( 'NONE',  #94 ) ;
#124 = CARTESIAN_POINT ( 'NONE',  ( 0.000000000000000000, 0.000000000000000000, 0.000000000000000000 ) ) ;
#125 = DIRECTION ( 'NONE',  ( 4.275831445896958607E-31, 1.000000000000000000, 1.224646799147353207E-16 ) ) ;
#126 =( LENGTH_UNIT ( ) NAMED_UNIT ( * ) SI_UNIT ( .MILLI., .METRE. ) );
#127 = CIRCLE ( 'NONE', #121, 3.999999999999994227 ) ;
#128 = CALENDAR_DATE ( 2024, 12, 7 ) ;
#129 = FACE_OUTER_BOUND ( 'NONE', #27, .T. ) ;
#130 = CC_DESIGN_PERSON_AND_ORGANIZATION_ASSIGNMENT ( #225, #204, ( #135 ) ) ;
#131 = CONICAL_SURFACE ( 'NONE', #187, 3.700000000000000178, 0.7853981633974468357 ) ;
#132 = EDGE_CURVE ( 'NONE', #223, #223, #172, .T. ) ;
#133 = APPROVAL_DATE_TIME ( #169, #72 ) ;
#134 = ORIENTED_EDGE ( 'NONE', *, *, #215, .F. ) ;
#135 = PRODUCT ( '976398', '976398', '', ( #240 ) ) ;
#136 = FACE_OUTER_BOUND ( 'NONE', #150, .T. ) ;
#137 = CC_DESIGN_DATE_AND_TIME_ASSIGNMENT ( #77, #148, ( #97 ) ) ;
#138 = CARTESIAN_POINT ( 'NONE',  ( 2.618611004132350143E-13, -9.184850993605148733E-15, 75.00000000000000000 ) ) ;
#139 = DIRECTION ( 'NONE',  ( 0.000000000000000000, 1.000000000000000000, 0.000000000000000000 ) ) ;
#140 = FACE_OUTER_BOUND ( 'NONE', #85, .T. ) ;
#141 = DIRECTION ( 'NONE',  ( 0.000000000000000000, 1.000000000000000000, 0.000000000000000000 ) ) ;
#142 = AXIS2_PLACEMENT_3D ( 'NONE', #216, #13, #235 ) ;
#143 = APPLICATION_PROTOCOL_DEFINITION ( 'international standard', 'config_control_design', 1994, #159 ) ;
#144 = DIRECTION ( 'NONE',  ( 0.000000000000000000, 1.000000000000000000, 0.000000000000000000 ) ) ;
#145 = CLOSED_SHELL ( 'NONE', ( #236, #185, #118, #74, #205, #190 ) ) ;
#146 = PLANE ( 'NONE',  #71 ) ;
#147 = CIRCLE ( 'NONE', #21, 3.700000000000000178 ) ;
#148 = DATE_TIME_ROLE ( 'classification_date' ) ;
#149 = DATE_TIME_ROLE ( 'creation_date' ) ;
#150 = EDGE_LOOP ( 'NONE', ( #79 ) ) ;
#151 = DESIGN_CONTEXT ( 'detailed design', #174, 'design' ) ;
#152 = ORIENTED_EDGE ( 'NONE', *, *, #167, .F. ) ;
#153 = DIRECTION ( 'NONE',  ( -3.491481338843133355E-15, 1.224646799147353207E-16, -1.000000000000000000 ) ) ;
#154 = PRODUCT_DEFINITION ( 'UNKNOWN', '', #171, #151 ) ;
#155 = ORIENTED_EDGE ( 'NONE', *, *, #215, .T. ) ;
#156 = DIRECTION ( 'NONE',  ( -3.491481338843133355E-15, 1.224646799147353207E-16, -1.000000000000000000 ) ) ;
#157 = AXIS2_PLACEMENT_3D ( 'NONE', #83, #26, #43 ) ;
#158 = ADVANCED_FACE ( 'NONE', ( #102 ), #179, .T. ) ;
#159 = APPLICATION_CONTEXT ( 'configuration controlled 3d designs of mechanical parts and assemblies' ) ;
#160 = DIRECTION ( 'NONE',  ( 0.000000000000000000, -1.000000000000000000, 0.000000000000000000 ) ) ;
#161 = PRODUCT_DEFINITION_SHAPE ( 'NONE', 'NONE',  #154 ) ;
#162 = EDGE_LOOP ( 'NONE', ( #38 ) ) ;
#163 =( NAMED_UNIT ( * ) PLANE_ANGLE_UNIT ( ) SI_UNIT ( $, .RADIAN. ) );
#164 = DIRECTION ( 'NONE',  ( 1.000000000000000000, 0.000000000000000000, 0.000000000000000000 ) ) ;
#165 = COORDINATED_UNIVERSAL_TIME_OFFSET ( 1, 0, .AHEAD. ) ;
#166 = MANIFOLD_SOLID_BREP ( 'Corps-Déplacer/Copier1[2]', #182 ) ;
#167 = EDGE_CURVE ( 'NONE', #207, #207, #203, .T. ) ;
#168 = DIRECTION ( 'NONE',  ( -4.275831445896958607E-31, -1.000000000000000000, -1.224646799147353207E-16 ) ) ;
#169 = DATE_AND_TIME ( #57, #233 ) ;
#170 = COORDINATED_UNIVERSAL_TIME_OFFSET ( 1, 0, .AHEAD. ) ;
#171 = PRODUCT_DEFINITION_FORMATION_WITH_SPECIFIED_SOURCE ( 'ANY', '', #135, .NOT_KNOWN. ) ;
#172 = CIRCLE ( 'NONE', #142, 3.699999999999996181 ) ;
#173 = EDGE_LOOP ( 'NONE', ( #198 ) ) ;
#174 = APPLICATION_CONTEXT ( 'configuration controlled 3d designs of mechanical parts and assemblies' ) ;
#175 = CALENDAR_DATE ( 2024, 12, 7 ) ;
#176 = LOCAL_TIME ( 11, 23, 14.00000000000000000, #34 ) ;
#177 = AXIS2_PLACEMENT_3D ( 'NONE', #220, #156, #232 ) ;
#178 = FACE_OUTER_BOUND ( 'NONE', #19, .T. ) ;
#179 = PLANE ( 'NONE',  #65 ) ;
#180 = EDGE_CURVE ( 'NONE', #93, #93, #51, .T. ) ;
#181 = FACE_OUTER_BOUND ( 'NONE', #214, .T. ) ;
#182 = CLOSED_SHELL ( 'NONE', ( #44, #6, #158 ) ) ;
#183 = FACE_OUTER_BOUND ( 'NONE', #162, .T. ) ;
#184 = DIRECTION ( 'NONE',  ( 0.000000000000000000, 1.000000000000000000, 0.000000000000000000 ) ) ;
#185 = ADVANCED_FACE ( 'NONE', ( #66, #183 ), #219, .T. ) ;
#186 = VERTEX_POINT ( 'NONE', #95 ) ;
#187 = AXIS2_PLACEMENT_3D ( 'NONE', #23, #89, #160 ) ;
#188 = CARTESIAN_POINT ( 'NONE',  ( 2.618611004132350143E-13, 3.699999999999990852, 75.00000000000000000 ) ) ;
#189 = APPROVAL_STATUS ( 'not_yet_approved' ) ;
#190 = ADVANCED_FACE ( 'NONE', ( #104 ), #123, .F. ) ;
#191 = PERSON_AND_ORGANIZATION_ROLE ( 'classification_officer' ) ;
#192 = PERSON_AND_ORGANIZATION_ROLE ( 'creator' ) ;
#193 = EDGE_LOOP ( 'NONE', ( #229 ) ) ;
#194 = ORIENTED_EDGE ( 'NONE', *, *, #167, .T. ) ;
#195 = CC_DESIGN_APPROVAL ( #72, ( #171 ) ) ;
#196 = AXIS2_PLACEMENT_3D ( 'NONE', #28, #201, #164 ) ;
#197 = CARTESIAN_POINT ( 'NONE',  ( 0.000000000000000000, 0.000000000000000000, 0.000000000000000000 ) ) ;
#198 = ORIENTED_EDGE ( 'NONE', *, *, #25, .F. ) ;
#199 = DIRECTION ( 'NONE',  ( -3.491481338843133355E-15, 1.224646799147353207E-16, -1.000000000000000000 ) ) ;
#200 = CARTESIAN_POINT ( 'NONE',  ( 2.629085448148879101E-13, -9.221590397579569593E-15, 75.29999999999999716 ) ) ;
#201 = DIRECTION ( 'NONE',  ( 0.000000000000000000, 0.000000000000000000, 1.000000000000000000 ) ) ;
#202 = APPROVAL_PERSON_ORGANIZATION ( #59, #72, #78 ) ;
#203 = CIRCLE ( 'NONE', #234, 3.500000000000003109 ) ;
#204 = PERSON_AND_ORGANIZATION_ROLE ( 'design_owner' ) ;
#205 = ADVANCED_FACE ( 'NONE', ( #243, #76 ), #113, .T. ) ;
#206 = CARTESIAN_POINT ( 'NONE',  ( 4.364351673553916568E-13, -1.530808498934191561E-14, 125.0000000000000000 ) ) ;
#207 = VERTEX_POINT ( 'NONE', #106 ) ;
#208 = APPROVAL_PERSON_ORGANIZATION ( #39, #12, #117 ) ;
#209 = CIRCLE ( 'NONE', #10, 4.000000000000003553 ) ;
#210 = CC_DESIGN_DATE_AND_TIME_ASSIGNMENT ( #37, #149, ( #154 ) ) ;
#211 = PERSON_AND_ORGANIZATION ( #84, #42 ) ;
#212 = ORIENTED_EDGE ( 'NONE', *, *, #25, .T. ) ;
#213 = LOCAL_TIME ( 11, 23, 14.00000000000000000, #165 ) ;
#214 = EDGE_LOOP ( 'NONE', ( #155 ) ) ;
#215 = EDGE_CURVE ( 'NONE', #50, #50, #209, .T. ) ;
#216 = CARTESIAN_POINT ( 'NONE',  ( 3.491481338843133355E-14, -1.224646799147353256E-15, 10.00000000000000000 ) ) ;
#217 = FACE_OUTER_BOUND ( 'NONE', #36, .T. ) ;
#218 = AXIS2_PLACEMENT_3D ( 'NONE', #206, #224, #144 ) ;
#219 = CYLINDRICAL_SURFACE ( 'NONE', #109, 3.699999999999998401 ) ;
#220 = CARTESIAN_POINT ( 'NONE',  ( 3.491481338843133355E-14, -1.224646799147353256E-15, 10.00000000000000000 ) ) ;
#221 = DIRECTION ( 'NONE',  ( -3.491481338843133355E-15, 1.224646799147353207E-16, -1.000000000000000000 ) ) ;
#222 = CIRCLE ( 'NONE', #33, 4.000000000000000000 ) ;
#223 = VERTEX_POINT ( 'NONE', #227 ) ;
#224 = DIRECTION ( 'NONE',  ( -3.491481338843133355E-15, 1.224646799147353207E-16, -1.000000000000000000 ) ) ;
#225 = PERSON_AND_ORGANIZATION ( #84, #42 ) ;
#226 = CARTESIAN_POINT ( 'NONE',  ( 3.421138828918010427E-46, 4.000000000000000000, 0.000000000000000000 ) ) ;
#227 = CARTESIAN_POINT ( 'NONE',  ( 3.491481338843133355E-14, 3.699999999999994849, 10.00000000000000000 ) ) ;
#228 = CALENDAR_DATE ( 2024, 12, 7 ) ;
#229 = ORIENTED_EDGE ( 'NONE', *, *, #180, .F. ) ;
#230 = DIRECTION ( 'NONE',  ( -3.491481338843133355E-15, 1.224646799147353207E-16, -1.000000000000000000 ) ) ;
#231 = EDGE_LOOP ( 'NONE', ( #194 ) ) ;
#232 = DIRECTION ( 'NONE',  ( 0.000000000000000000, 1.000000000000000000, 0.000000000000000000 ) ) ;
#233 = LOCAL_TIME ( 11, 23, 14.00000000000000000, #170 ) ;
#234 = AXIS2_PLACEMENT_3D ( 'NONE', #22, #237, #139 ) ;
#235 = DIRECTION ( 'NONE',  ( 0.000000000000000000, 1.000000000000000000, 0.000000000000000000 ) ) ;
#236 = ADVANCED_FACE ( 'NONE', ( #129 ), #146, .F. ) ;
#237 = DIRECTION ( 'NONE',  ( -3.491481338843133355E-15, 1.224646799147353207E-16, -1.000000000000000000 ) ) ;
#238 = DIRECTION ( 'NONE',  ( -3.491481338843133355E-15, 1.224646799147353207E-16, -1.000000000000000000 ) ) ;
#239 = AXIS2_PLACEMENT_3D ( 'NONE', #197, #230, #64 ) ;
#240 = MECHANICAL_CONTEXT ( 'NONE', #159, 'mechanical' ) ;
#241 = DIRECTION ( 'NONE',  ( 4.275831445896958607E-31, 1.000000000000000000, 1.224646799147353207E-16 ) ) ;
#242 = DATE_AND_TIME ( #128, #213 ) ;
#243 = FACE_OUTER_BOUND ( 'NONE', #41, .T. ) ;
ENDSEC;
END-ISO-10303-21;
