ISO-10303-21;
HEADER;
FILE_DESCRIPTION (( 'STEP AP203' ),
    '1' );
FILE_NAME ('976397.step',
    '2024-07-12T09:23:13',
    ( '' ),
    ( '' ),
    'SwSTEP 2.0',
    'SolidWorks 2022',
    '' );
FILE_SCHEMA (( 'CONFIG_CONTROL_DESIGN' ));
ENDSEC;

DATA;
#1 = CARTESIAN_POINT ( 'NONE',  ( 0.000000000000000000, 0.000000000000000000, 0.000000000000000000 ) ) ;
#2 = ADVANCED_FACE ( 'NONE', ( #21 ), #37, .F. ) ;
#3 = CIRCLE ( 'NONE', #100, 3.699999999999997957 ) ;
#4 = DIRECTION ( 'NONE',  ( 0.000000000000000000, 1.000000000000000000, 0.000000000000000000 ) ) ;
#5 = APPROVAL_DATE_TIME ( #108, #147 ) ;
#6 = EDGE_CURVE ( 'NONE', #71, #71, #84, .T. ) ;
#7 = CARTESIAN_POINT ( 'NONE',  ( 1.745740669421566678E-13, -6.123233995736766085E-15, 50.00000000000000000 ) ) ;
#8 = AXIS2_PLACEMENT_3D ( 'NONE', #145, #153, #239 ) ;
#9 = CC_DESIGN_DATE_AND_TIME_ASSIGNMENT ( #161, #101, ( #178 ) ) ;
#10 = EDGE_LOOP ( 'NONE', ( #52 ) ) ;
#11 = COORDINATED_UNIVERSAL_TIME_OFFSET ( 1, 0, .AHEAD. ) ;
#12 = DIRECTION ( 'NONE',  ( 0.000000000000000000, 1.000000000000000000, 0.000000000000000000 ) ) ;
#13 = ORIENTED_EDGE ( 'NONE', *, *, #93, .T. ) ;
#14 = DATE_TIME_ROLE ( 'classification_date' ) ;
#15 = CARTESIAN_POINT ( 'NONE',  ( 3.491481338843133355E-14, -1.224646799147353256E-15, 10.00000000000000000 ) ) ;
#16 = PERSON ( 'UNSPECIFIED', 'UNSPECIFIED', 'UNSPECIFIED', ('UNSPECIFIED'), ('UNSPECIFIED'), ('UNSPECIFIED') ) ;
#17 = ORIENTED_EDGE ( 'NONE', *, *, #35, .T. ) ;
#18 = CARTESIAN_POINT ( 'NONE',  ( 3.474023932148917752E-13, 3.999999999999990674, 99.50000000000000000 ) ) ;
#19 = DIRECTION ( 'NONE',  ( -3.491481338843133355E-15, 1.224646799147353207E-16, -1.000000000000000000 ) ) ;
#20 = PERSON_AND_ORGANIZATION_ROLE ( 'design_supplier' ) ;
#21 = FACE_OUTER_BOUND ( 'NONE', #132, .T. ) ;
#22 = APPROVAL_PERSON_ORGANIZATION ( #49, #147, #226 ) ;
#23 = CARTESIAN_POINT ( 'NONE',  ( 1.756215113438095888E-13, -6.159973399711186156E-15, 50.29999999999999716 ) ) ;
#24 = APPLICATION_PROTOCOL_DEFINITION ( 'international standard', 'config_control_design', 1994, #176 ) ;
#25 = DIRECTION ( 'NONE',  ( 0.000000000000000000, -1.000000000000000000, 0.000000000000000000 ) ) ;
#26 = ORIENTED_EDGE ( 'NONE', *, *, #238, .F. ) ;
#27 = EDGE_LOOP ( 'NONE', ( #40 ) ) ;
#28 = FACE_OUTER_BOUND ( 'NONE', #235, .T. ) ;
#29 =( LENGTH_UNIT ( ) NAMED_UNIT ( * ) SI_UNIT ( .MILLI., .METRE. ) );
#30 = CIRCLE ( 'NONE', #194, 4.000000000000000000 ) ;
#31 = VERTEX_POINT ( 'NONE', #242 ) ;
#32 = CC_DESIGN_PERSON_AND_ORGANIZATION_ASSIGNMENT ( #218, #41, ( #178 ) ) ;
#33 = DIRECTION ( 'NONE',  ( -3.491481338843133355E-15, 1.224646799147353207E-16, -1.000000000000000000 ) ) ;
#34 = CIRCLE ( 'NONE', #233, 4.000000000000002665 ) ;
#35 = EDGE_CURVE ( 'NONE', #126, #126, #243, .T. ) ;
#36 = APPROVAL_PERSON_ORGANIZATION ( #232, #189, #137 ) ;
#37 = PLANE ( 'NONE',  #163 ) ;
#38 = CALENDAR_DATE ( 2024, 12, 7 ) ;
#39 = DIRECTION ( 'NONE',  ( 4.275831445896958607E-31, 1.000000000000000000, 1.224646799147353207E-16 ) ) ;
#40 = ORIENTED_EDGE ( 'NONE', *, *, #35, .F. ) ;
#41 = PERSON_AND_ORGANIZATION_ROLE ( 'creator' ) ;
#42 = DIRECTION ( 'NONE',  ( -4.275831445896958607E-31, -1.000000000000000000, -1.224646799147353207E-16 ) ) ;
#43 = LOCAL_TIME ( 11, 23, 13.00000000000000000, #11 ) ;
#44 = APPLICATION_CONTEXT ( 'configuration controlled 3d designs of mechanical parts and assemblies' ) ;
#45 = DIRECTION ( 'NONE',  ( 3.491481338843133355E-15, -1.224646799147353207E-16, 1.000000000000000000 ) ) ;
#46 = VERTEX_POINT ( 'NONE', #18 ) ;
#47 = MANIFOLD_SOLID_BREP ( 'Corps-Déplacer/Copier1[2]', #173 ) ;
#48 = ADVANCED_FACE ( 'NONE', ( #175 ), #75, .T. ) ;
#49 = PERSON_AND_ORGANIZATION ( #16, #230 ) ;
#50 = CC_DESIGN_PERSON_AND_ORGANIZATION_ASSIGNMENT ( #97, #62, ( #133 ) ) ;
#51 = DIRECTION ( 'NONE',  ( -3.491481338843133355E-15, 1.224646799147353207E-16, -1.000000000000000000 ) ) ;
#52 = ORIENTED_EDGE ( 'NONE', *, *, #93, .F. ) ;
#53 = CALENDAR_DATE ( 2024, 12, 7 ) ;
#54 = CARTESIAN_POINT ( 'NONE',  ( 1.756215113438095888E-13, 3.999999999999988010, 50.29999999999999716 ) ) ;
#55 = CARTESIAN_POINT ( 'NONE',  ( 3.491481338843133355E-13, 2.624579619658234940E-32, 100.0000000000000000 ) ) ;
#56 = ADVANCED_FACE ( 'NONE', ( #205 ), #118, .F. ) ;
#57 = PERSON_AND_ORGANIZATION ( #16, #230 ) ;
#58 = AXIS2_PLACEMENT_3D ( 'NONE', #159, #122, #140 ) ;
#59 = DIRECTION ( 'NONE',  ( 3.491481338843133355E-15, -1.224646799147353207E-16, 1.000000000000000000 ) ) ;
#60 = CC_DESIGN_DATE_AND_TIME_ASSIGNMENT ( #188, #14, ( #86 ) ) ;
#61 = AXIS2_PLACEMENT_3D ( 'NONE', #1, #33, #127 ) ;
#62 = PERSON_AND_ORGANIZATION_ROLE ( 'design_owner' ) ;
#63 = ORIENTED_EDGE ( 'NONE', *, *, #224, .T. ) ;
#64 = AXIS2_PLACEMENT_3D ( 'NONE', #156, #59, #141 ) ;
#65 = APPLICATION_PROTOCOL_DEFINITION ( 'international standard', 'config_control_design', 1994, #44 ) ;
#66 = DIRECTION ( 'NONE',  ( 3.491481338843133355E-15, -1.224646799147353207E-16, 1.000000000000000000 ) ) ;
#67 = CYLINDRICAL_SURFACE ( 'NONE', #134, 4.000000000000000000 ) ;
#68 = ADVANCED_FACE ( 'NONE', ( #201, #183 ), #105, .T. ) ;
#69 = EDGE_LOOP ( 'NONE', ( #206 ) ) ;
#70 = CC_DESIGN_PERSON_AND_ORGANIZATION_ASSIGNMENT ( #57, #129, ( #86 ) ) ;
#71 = VERTEX_POINT ( 'NONE', #54 ) ;
#72 = VERTEX_POINT ( 'NONE', #149 ) ;
#73 =( NAMED_UNIT ( * ) SI_UNIT ( $, .STERADIAN. ) SOLID_ANGLE_UNIT ( ) );
#74 = CC_DESIGN_APPROVAL ( #167, ( #121 ) ) ;
#75 = PLANE ( 'NONE',  #64 ) ;
#76 = FACE_OUTER_BOUND ( 'NONE', #220, .T. ) ;
#77 = AXIS2_PLACEMENT_3D ( 'NONE', #223, #104, #185 ) ;
#78 = CYLINDRICAL_SURFACE ( 'NONE', #77, 3.999999999999998224 ) ;
#79 = EDGE_LOOP ( 'NONE', ( #82 ) ) ;
#80 = EDGE_CURVE ( 'NONE', #46, #46, #34, .T. ) ;
#81 = MECHANICAL_CONTEXT ( 'NONE', #176, 'mechanical' ) ;
#82 = ORIENTED_EDGE ( 'NONE', *, *, #154, .T. ) ;
#83 = APPROVAL_STATUS ( 'not_yet_approved' ) ;
#84 = CIRCLE ( 'NONE', #151, 3.999999999999994227 ) ;
#85 = EDGE_LOOP ( 'NONE', ( #114 ) ) ;
#86 = SECURITY_CLASSIFICATION ( '', '', #91 ) ;
#87 = DIRECTION ( 'NONE',  ( -3.491481338843133355E-15, 1.224646799147353207E-16, -1.000000000000000000 ) ) ;
#88 = LOCAL_TIME ( 11, 23, 13.00000000000000000, #177 ) ;
#89 = CARTESIAN_POINT ( 'NONE',  ( 1.745740669421566678E-13, 3.699999999999993960, 50.00000000000000000 ) ) ;
#90 = CARTESIAN_POINT ( 'NONE',  ( 3.491481338843133355E-14, -1.224646799147353256E-15, 10.00000000000000000 ) ) ;
#91 = SECURITY_CLASSIFICATION_LEVEL ( 'unclassified' ) ;
#92 = CYLINDRICAL_SURFACE ( 'NONE', #61, 3.699999999999999289 ) ;
#93 = EDGE_CURVE ( 'NONE', #169, #169, #30, .T. ) ;
#94 = AXIS2_PLACEMENT_3D ( 'NONE', #90, #51, #150 ) ;
#95 = DIRECTION ( 'NONE',  ( 4.275831445896958607E-31, 1.000000000000000000, 1.224646799147353207E-16 ) ) ;
#96 = LOCAL_TIME ( 11, 23, 13.00000000000000000, #123 ) ;
#97 = PERSON_AND_ORGANIZATION ( #16, #230 ) ;
#98 = DIRECTION ( 'NONE',  ( -3.491481338843133355E-15, 1.224646799147353207E-16, -1.000000000000000000 ) ) ;
#99 = FACE_OUTER_BOUND ( 'NONE', #136, .T. ) ;
#100 = AXIS2_PLACEMENT_3D ( 'NONE', #15, #87, #217 ) ;
#101 = DATE_TIME_ROLE ( 'creation_date' ) ;
#102 = ORIENTED_EDGE ( 'NONE', *, *, #80, .T. ) ;
#103 = CARTESIAN_POINT ( 'NONE',  ( 3.491481338843133355E-14, 2.774555597924433838E-32, 10.00000000000000000 ) ) ;
#104 = DIRECTION ( 'NONE',  ( -3.491481338843133355E-15, 1.224646799147353207E-16, -1.000000000000000000 ) ) ;
#105 = CONICAL_SURFACE ( 'NONE', #112, 3.500000000000002665, 0.7853981633974479459 ) ;
#106 = CC_DESIGN_SECURITY_CLASSIFICATION ( #86, ( #121 ) ) ;
#107 =( NAMED_UNIT ( * ) PLANE_ANGLE_UNIT ( ) SI_UNIT ( $, .RADIAN. ) );
#108 = DATE_AND_TIME ( #53, #222 ) ;
#109 = ADVANCED_FACE ( 'NONE', ( #28, #219 ), #212, .T. ) ;
#110 = COORDINATED_UNIVERSAL_TIME_OFFSET ( 1, 0, .AHEAD. ) ;
#111 = EDGE_LOOP ( 'NONE', ( #198 ) ) ;
#112 = AXIS2_PLACEMENT_3D ( 'NONE', #138, #124, #12 ) ;
#113 = CALENDAR_DATE ( 2024, 12, 7 ) ;
#114 = ORIENTED_EDGE ( 'NONE', *, *, #154, .F. ) ;
#115 = DIRECTION ( 'NONE',  ( -3.491481338843133355E-15, 1.224646799147353207E-16, -1.000000000000000000 ) ) ;
#116 = ADVANCED_FACE ( 'NONE', ( #181, #143 ), #78, .T. ) ;
#117 = APPROVAL_DATE_TIME ( #142, #189 ) ;
#118 = PLANE ( 'NONE',  #146 ) ;
#119 = CALENDAR_DATE ( 2024, 12, 7 ) ;
#120 = CARTESIAN_POINT ( 'NONE',  ( 3.474023932148917752E-13, -1.218523565151616460E-14, 99.50000000000000000 ) ) ;
#121 = PRODUCT_DEFINITION_FORMATION_WITH_SPECIFIED_SOURCE ( 'ANY', '', #133, .NOT_KNOWN. ) ;
#122 = DIRECTION ( 'NONE',  ( 0.000000000000000000, 0.000000000000000000, 1.000000000000000000 ) ) ;
#123 = COORDINATED_UNIVERSAL_TIME_OFFSET ( 1, 0, .AHEAD. ) ;
#124 = DIRECTION ( 'NONE',  ( -3.491481338843133355E-15, 1.224646799147353207E-16, -1.000000000000000000 ) ) ;
#125 = CARTESIAN_POINT ( 'NONE',  ( 3.421138828918010427E-46, 4.000000000000000000, 0.000000000000000000 ) ) ;
#126 = VERTEX_POINT ( 'NONE', #89 ) ;
#127 = DIRECTION ( 'NONE',  ( 4.275831445896958607E-31, 1.000000000000000000, 1.224646799147352961E-16 ) ) ;
#128 = LOCAL_TIME ( 11, 23, 13.00000000000000000, #110 ) ;
#129 = PERSON_AND_ORGANIZATION_ROLE ( 'classification_officer' ) ;
#130 = MANIFOLD_SOLID_BREP ( 'Corps-Déplacer/Copier1[1]', #211 ) ;
#131 = CIRCLE ( 'NONE', #8, 3.500000000000002665 ) ;
#132 = EDGE_LOOP ( 'NONE', ( #26 ) ) ;
#133 = PRODUCT ( '976397', '976397', '', ( #81 ) ) ;
#134 = AXIS2_PLACEMENT_3D ( 'NONE', #144, #225, #39 ) ;
#135 = FACE_OUTER_BOUND ( 'NONE', #85, .T. ) ;
#136 = EDGE_LOOP ( 'NONE', ( #13 ) ) ;
#137 = APPROVAL_ROLE ( '' ) ;
#138 = CARTESIAN_POINT ( 'NONE',  ( 3.491481338843133355E-13, -1.224646799147353217E-14, 100.0000000000000000 ) ) ;
#139 = EDGE_LOOP ( 'NONE', ( #17 ) ) ;
#140 = DIRECTION ( 'NONE',  ( 1.000000000000000000, 0.000000000000000000, 0.000000000000000000 ) ) ;
#141 = DIRECTION ( 'NONE',  ( -4.275831445896958607E-31, -1.000000000000000000, -1.224646799147353207E-16 ) ) ;
#142 = DATE_AND_TIME ( #38, #88 ) ;
#143 = FACE_OUTER_BOUND ( 'NONE', #191, .T. ) ;
#144 = CARTESIAN_POINT ( 'NONE',  ( 0.000000000000000000, 0.000000000000000000, 0.000000000000000000 ) ) ;
#145 = CARTESIAN_POINT ( 'NONE',  ( 3.491481338843133355E-13, -1.224646799147353217E-14, 100.0000000000000000 ) ) ;
#146 = AXIS2_PLACEMENT_3D ( 'NONE', #103, #45, #42 ) ;
#147 = APPROVAL ( #148, 'UNSPECIFIED' ) ;
#148 = APPROVAL_STATUS ( 'not_yet_approved' ) ;
#149 = CARTESIAN_POINT ( 'NONE',  ( 3.491481338843133355E-13, 3.499999999999990674, 100.0000000000000000 ) ) ;
#150 = DIRECTION ( 'NONE',  ( 0.000000000000000000, 1.000000000000000000, 0.000000000000000000 ) ) ;
#151 = AXIS2_PLACEMENT_3D ( 'NONE', #23, #19, #4 ) ;
#152 = ORIENTED_EDGE ( 'NONE', *, *, #238, .T. ) ;
#153 = DIRECTION ( 'NONE',  ( -3.491481338843133355E-15, 1.224646799147353207E-16, -1.000000000000000000 ) ) ;
#154 = EDGE_CURVE ( 'NONE', #31, #31, #3, .T. ) ;
#155 = CARTESIAN_POINT ( 'NONE',  ( 1.745740669421566678E-13, -6.123233995736766085E-15, 50.00000000000000000 ) ) ;
#156 = CARTESIAN_POINT ( 'NONE',  ( 3.491481338843133355E-14, 2.999519565323713574E-32, 10.00000000000000000 ) ) ;
#157 = CARTESIAN_POINT ( 'NONE',  ( -8.551662891793915461E-31, 2.999519565323715216E-32, -2.449293598294706414E-16 ) ) ;
#158 = CC_DESIGN_PERSON_AND_ORGANIZATION_ASSIGNMENT ( #210, #186, ( #121 ) ) ;
#159 = CARTESIAN_POINT ( 'NONE',  ( 0.000000000000000000, 0.000000000000000000, 0.000000000000000000 ) ) ;
#160 = PLANE ( 'NONE',  #171 ) ;
#161 = DATE_AND_TIME ( #119, #96 ) ;
#162 = ADVANCED_BREP_SHAPE_REPRESENTATION ( '976397', ( #130, #47, #58 ), #192 ) ;
#163 = AXIS2_PLACEMENT_3D ( 'NONE', #55, #115, #95 ) ;
#164 = DIRECTION ( 'NONE',  ( 4.275831445896958607E-31, 1.000000000000000000, 1.224646799147353207E-16 ) ) ;
#165 = CC_DESIGN_APPROVAL ( #147, ( #86 ) ) ;
#166 = FACE_OUTER_BOUND ( 'NONE', #10, .T. ) ;
#167 = APPROVAL ( #83, 'UNSPECIFIED' ) ;
#168 = VERTEX_POINT ( 'NONE', #240 ) ;
#169 = VERTEX_POINT ( 'NONE', #125 ) ;
#170 = ORIENTED_EDGE ( 'NONE', *, *, #6, .T. ) ;
#171 = AXIS2_PLACEMENT_3D ( 'NONE', #157, #98, #204 ) ;
#172 = DIRECTION ( 'NONE',  ( 0.000000000000000000, 1.000000000000000000, 0.000000000000000000 ) ) ;
#173 = CLOSED_SHELL ( 'NONE', ( #200, #187, #48 ) ) ;
#174 = PRODUCT_DEFINITION_SHAPE ( 'NONE', 'NONE',  #178 ) ;
#175 = FACE_OUTER_BOUND ( 'NONE', #111, .T. ) ;
#176 = APPLICATION_CONTEXT ( 'configuration controlled 3d designs of mechanical parts and assemblies' ) ;
#177 = COORDINATED_UNIVERSAL_TIME_OFFSET ( 1, 0, .AHEAD. ) ;
#178 = PRODUCT_DEFINITION ( 'UNKNOWN', '', #121, #195 ) ;
#179 = DIRECTION ( 'NONE',  ( -3.491481338843133355E-15, 1.224646799147353207E-16, -1.000000000000000000 ) ) ;
#180 = APPROVAL_STATUS ( 'not_yet_approved' ) ;
#181 = FACE_OUTER_BOUND ( 'NONE', #216, .T. ) ;
#182 = EDGE_LOOP ( 'NONE', ( #152 ) ) ;
#183 = FACE_BOUND ( 'NONE', #182, .T. ) ;
#184 = APPROVAL_ROLE ( '' ) ;
#185 = DIRECTION ( 'NONE',  ( 4.275831445896958607E-31, 1.000000000000000000, 1.224646799147353207E-16 ) ) ;
#186 = PERSON_AND_ORGANIZATION_ROLE ( 'creator' ) ;
#187 = ADVANCED_FACE ( 'NONE', ( #76, #166 ), #67, .T. ) ;
#188 = DATE_AND_TIME ( #113, #128 ) ;
#189 = APPROVAL ( #180, 'UNSPECIFIED' ) ;
#190 = SHAPE_DEFINITION_REPRESENTATION ( #174, #162 ) ;
#191 = EDGE_LOOP ( 'NONE', ( #102 ) ) ;
#192 =( GEOMETRIC_REPRESENTATION_CONTEXT ( 3 ) GLOBAL_UNCERTAINTY_ASSIGNED_CONTEXT ( ( #215 ) ) GLOBAL_UNIT_ASSIGNED_CONTEXT ( ( #29, #107, #73 ) ) REPRESENTATION_CONTEXT ( 'NONE', 'WORKASPACE' ) );
#193 = ORIENTED_EDGE ( 'NONE', *, *, #6, .F. ) ;
#194 = AXIS2_PLACEMENT_3D ( 'NONE', #203, #179, #164 ) ;
#195 = DESIGN_CONTEXT ( 'detailed design', #44, 'design' ) ;
#196 = CC_DESIGN_PERSON_AND_ORGANIZATION_ASSIGNMENT ( #197, #20, ( #121 ) ) ;
#197 = PERSON_AND_ORGANIZATION ( #16, #230 ) ;
#198 = ORIENTED_EDGE ( 'NONE', *, *, #224, .F. ) ;
#199 = AXIS2_PLACEMENT_3D ( 'NONE', #155, #228, #172 ) ;
#200 = ADVANCED_FACE ( 'NONE', ( #99 ), #160, .T. ) ;
#201 = FACE_OUTER_BOUND ( 'NONE', #69, .T. ) ;
#202 = CALENDAR_DATE ( 2024, 12, 7 ) ;
#203 = CARTESIAN_POINT ( 'NONE',  ( -1.710332578358783092E-30, 5.999039130647430431E-32, -4.898587196589412829E-16 ) ) ;
#204 = DIRECTION ( 'NONE',  ( 4.275831445896958607E-31, 1.000000000000000000, 1.224646799147353207E-16 ) ) ;
#205 = FACE_OUTER_BOUND ( 'NONE', #79, .T. ) ;
#206 = ORIENTED_EDGE ( 'NONE', *, *, #80, .F. ) ;
#207 = COORDINATED_UNIVERSAL_TIME_OFFSET ( 1, 0, .AHEAD. ) ;
#208 = PERSON_AND_ORGANIZATION ( #16, #230 ) ;
#209 = DIRECTION ( 'NONE',  ( -3.491481338843133355E-15, 1.224646799147353207E-16, -1.000000000000000000 ) ) ;
#210 = PERSON_AND_ORGANIZATION ( #16, #230 ) ;
#211 = CLOSED_SHELL ( 'NONE', ( #56, #213, #109, #116, #68, #2 ) ) ;
#212 = CONICAL_SURFACE ( 'NONE', #214, 3.700000000000000178, 0.7853981633974468357 ) ;
#213 = ADVANCED_FACE ( 'NONE', ( #234, #135 ), #92, .T. ) ;
#214 = AXIS2_PLACEMENT_3D ( 'NONE', #7, #66, #25 ) ;
#215 = UNCERTAINTY_MEASURE_WITH_UNIT (LENGTH_MEASURE( 1.000000000000000082E-05 ), #29, 'distance_accuracy_value', 'NONE');
#216 = EDGE_LOOP ( 'NONE', ( #193 ) ) ;
#217 = DIRECTION ( 'NONE',  ( 0.000000000000000000, 1.000000000000000000, 0.000000000000000000 ) ) ;
#218 = PERSON_AND_ORGANIZATION ( #16, #230 ) ;
#219 = FACE_BOUND ( 'NONE', #27, .T. ) ;
#220 = EDGE_LOOP ( 'NONE', ( #63 ) ) ;
#221 = PRODUCT_RELATED_PRODUCT_CATEGORY ( 'detail', '', ( #133 ) ) ;
#222 = LOCAL_TIME ( 11, 23, 13.00000000000000000, #207 ) ;
#223 = CARTESIAN_POINT ( 'NONE',  ( 0.000000000000000000, 0.000000000000000000, 0.000000000000000000 ) ) ;
#224 = EDGE_CURVE ( 'NONE', #168, #168, #227, .T. ) ;
#225 = DIRECTION ( 'NONE',  ( -3.491481338843133355E-15, 1.224646799147353207E-16, -1.000000000000000000 ) ) ;
#226 = APPROVAL_ROLE ( '' ) ;
#227 = CIRCLE ( 'NONE', #94, 4.000000000000000000 ) ;
#228 = DIRECTION ( 'NONE',  ( -3.491481338843133355E-15, 1.224646799147353207E-16, -1.000000000000000000 ) ) ;
#229 = CC_DESIGN_APPROVAL ( #189, ( #178 ) ) ;
#230 = ORGANIZATION ( 'UNSPECIFIED', 'UNSPECIFIED', '' ) ;
#231 = DATE_AND_TIME ( #202, #43 ) ;
#232 = PERSON_AND_ORGANIZATION ( #16, #230 ) ;
#233 = AXIS2_PLACEMENT_3D ( 'NONE', #120, #209, #236 ) ;
#234 = FACE_OUTER_BOUND ( 'NONE', #139, .T. ) ;
#235 = EDGE_LOOP ( 'NONE', ( #170 ) ) ;
#236 = DIRECTION ( 'NONE',  ( 0.000000000000000000, 1.000000000000000000, 0.000000000000000000 ) ) ;
#237 = APPROVAL_PERSON_ORGANIZATION ( #208, #167, #184 ) ;
#238 = EDGE_CURVE ( 'NONE', #72, #72, #131, .T. ) ;
#239 = DIRECTION ( 'NONE',  ( 0.000000000000000000, 1.000000000000000000, 0.000000000000000000 ) ) ;
#240 = CARTESIAN_POINT ( 'NONE',  ( 3.491481338843133355E-14, 3.999999999999999112, 10.00000000000000000 ) ) ;
#241 = APPROVAL_DATE_TIME ( #231, #167 ) ;
#242 = CARTESIAN_POINT ( 'NONE',  ( 3.491481338843133355E-14, 3.699999999999996625, 10.00000000000000000 ) ) ;
#243 = CIRCLE ( 'NONE', #199, 3.700000000000000178 ) ;
ENDSEC;
END-ISO-10303-21;
