ISO-10303-21;
HEADER;
FILE_DESCRIPTION (( 'STEP AP203' ),
    '1' );
FILE_NAME ('976396.step',
    '2024-07-12T09:23:13',
    ( '' ),
    ( '' ),
    'SwSTEP 2.0',
    'SolidWorks 2022',
    '' );
FILE_SCHEMA (( 'CONFIG_CONTROL_DESIGN' ));
ENDSEC;

DATA;
#1 = DIRECTION ( 'NONE',  ( 4.275831445896958607E-31, 1.000000000000000000, 1.224646799147353207E-16 ) ) ;
#2 = CARTESIAN_POINT ( 'NONE',  ( 1.187103655206665341E-13, -4.163799117101000559E-15, 34.00000000000000000 ) ) ;
#3 = AXIS2_PLACEMENT_3D ( 'NONE', #64, #107, #104 ) ;
#4 = UNCERTAINTY_MEASURE_WITH_UNIT (LENGTH_MEASURE( 1.000000000000000082E-05 ), #213, 'distance_accuracy_value', 'NONE');
#5 = PERSON_AND_ORGANIZATION ( #226, #20 ) ;
#6 = CARTESIAN_POINT ( 'NONE',  ( 2.618611004132350143E-13, 3.499999999999992450, 75.00000000000000000 ) ) ;
#7 = CARTESIAN_POINT ( 'NONE',  ( 3.491481338843133355E-14, -1.224646799147353256E-15, 10.00000000000000000 ) ) ;
#8 = DATE_AND_TIME ( #180, #177 ) ;
#9 = APPROVAL_ROLE ( '' ) ;
#10 = EDGE_LOOP ( 'NONE', ( #151 ) ) ;
#11 = CLOSED_SHELL ( 'NONE', ( #53, #22, #199 ) ) ;
#12 = APPROVAL ( #183, 'UNSPECIFIED' ) ;
#13 = DIRECTION ( 'NONE',  ( -3.491481338843133355E-15, 1.224646799147353207E-16, -1.000000000000000000 ) ) ;
#14 = EDGE_CURVE ( 'NONE', #158, #158, #123, .T. ) ;
#15 = APPROVAL_STATUS ( 'not_yet_approved' ) ;
#16 = CIRCLE ( 'NONE', #242, 3.999999999999994671 ) ;
#17 = DIRECTION ( 'NONE',  ( 3.491481338843133355E-15, -1.224646799147353207E-16, 1.000000000000000000 ) ) ;
#18 = CARTESIAN_POINT ( 'NONE',  ( 1.187103655206665341E-13, 3.699999999999995737, 34.00000000000000000 ) ) ;
#19 = CARTESIAN_POINT ( 'NONE',  ( 3.491481338843133355E-14, 3.699999999999997513, 10.00000000000000000 ) ) ;
#20 = ORGANIZATION ( 'UNSPECIFIED', 'UNSPECIFIED', '' ) ;
#21 = DIRECTION ( 'NONE',  ( 3.491481338843133355E-15, -1.224646799147353207E-16, 1.000000000000000000 ) ) ;
#22 = ADVANCED_FACE ( 'NONE', ( #217, #56 ), #238, .T. ) ;
#23 = CARTESIAN_POINT ( 'NONE',  ( 1.187103655206665341E-13, -4.163799117101000559E-15, 34.00000000000000000 ) ) ;
#24 = ADVANCED_FACE ( 'NONE', ( #152, #179 ), #93, .T. ) ;
#25 = PERSON_AND_ORGANIZATION ( #226, #20 ) ;
#26 = CC_DESIGN_SECURITY_CLASSIFICATION ( #167, ( #101 ) ) ;
#27 = COORDINATED_UNIVERSAL_TIME_OFFSET ( 1, 0, .AHEAD. ) ;
#28 = ORIENTED_EDGE ( 'NONE', *, *, #33, .T. ) ;
#29 = MECHANICAL_CONTEXT ( 'NONE', #40, 'mechanical' ) ;
#30 = EDGE_LOOP ( 'NONE', ( #97 ) ) ;
#31 = PERSON_AND_ORGANIZATION ( #226, #20 ) ;
#32 = CC_DESIGN_APPROVAL ( #35, ( #101 ) ) ;
#33 = EDGE_CURVE ( 'NONE', #189, #189, #94, .T. ) ;
#34 = DATE_AND_TIME ( #96, #233 ) ;
#35 = APPROVAL ( #176, 'UNSPECIFIED' ) ;
#36 = ORIENTED_EDGE ( 'NONE', *, *, #14, .T. ) ;
#37 = EDGE_LOOP ( 'NONE', ( #149 ) ) ;
#38 = PRODUCT_RELATED_PRODUCT_CATEGORY ( 'detail', '', ( #235 ) ) ;
#39 = ORIENTED_EDGE ( 'NONE', *, *, #142, .F. ) ;
#40 = APPLICATION_CONTEXT ( 'configuration controlled 3d designs of mechanical parts and assemblies' ) ;
#41 = FACE_OUTER_BOUND ( 'NONE', #37, .T. ) ;
#42 = AXIS2_PLACEMENT_3D ( 'NONE', #147, #200, #193 ) ;
#43 = CARTESIAN_POINT ( 'NONE',  ( 2.618611004132350143E-13, -9.184850993605148733E-15, 75.00000000000000000 ) ) ;
#44 = MANIFOLD_SOLID_BREP ( 'Corps-Déplacer/Copier1[2]', #11 ) ;
#45 = PLANE ( 'NONE',  #57 ) ;
#46 = FACE_OUTER_BOUND ( 'NONE', #10, .T. ) ;
#47 = DIRECTION ( 'NONE',  ( -3.491481338843133355E-15, 1.224646799147353207E-16, -1.000000000000000000 ) ) ;
#48 = CC_DESIGN_DATE_AND_TIME_ASSIGNMENT ( #186, #166, ( #167 ) ) ;
#49 = PERSON_AND_ORGANIZATION_ROLE ( 'design_owner' ) ;
#50 = CALENDAR_DATE ( 2024, 12, 7 ) ;
#51 = DATE_AND_TIME ( #50, #237 ) ;
#52 = ORIENTED_EDGE ( 'NONE', *, *, #171, .T. ) ;
#53 = ADVANCED_FACE ( 'NONE', ( #141 ), #82, .T. ) ;
#54 = LOCAL_TIME ( 11, 23, 13.00000000000000000, #27 ) ;
#55 = COORDINATED_UNIVERSAL_TIME_OFFSET ( 1, 0, .AHEAD. ) ;
#56 = FACE_OUTER_BOUND ( 'NONE', #197, .T. ) ;
#57 = AXIS2_PLACEMENT_3D ( 'NONE', #243, #17, #169 ) ;
#58 = DIRECTION ( 'NONE',  ( 0.000000000000000000, 1.000000000000000000, 0.000000000000000000 ) ) ;
#59 = CC_DESIGN_PERSON_AND_ORGANIZATION_ASSIGNMENT ( #230, #110, ( #101 ) ) ;
#60 = DIRECTION ( 'NONE',  ( 0.000000000000000000, 1.000000000000000000, 0.000000000000000000 ) ) ;
#61 = AXIS2_PLACEMENT_3D ( 'NONE', #119, #89, #88 ) ;
#62 = DIRECTION ( 'NONE',  ( -3.491481338843133355E-15, 1.224646799147353207E-16, -1.000000000000000000 ) ) ;
#63 = FACE_BOUND ( 'NONE', #234, .T. ) ;
#64 = CARTESIAN_POINT ( 'NONE',  ( -8.551662891793915461E-31, 2.999519565323715216E-32, -2.449293598294706414E-16 ) ) ;
#65 = AXIS2_PLACEMENT_3D ( 'NONE', #173, #62, #157 ) ;
#66 = APPLICATION_CONTEXT ( 'configuration controlled 3d designs of mechanical parts and assemblies' ) ;
#67 = COORDINATED_UNIVERSAL_TIME_OFFSET ( 1, 0, .AHEAD. ) ;
#68 = SECURITY_CLASSIFICATION_LEVEL ( 'unclassified' ) ;
#69 = AXIS2_PLACEMENT_3D ( 'NONE', #121, #209, #227 ) ;
#70 = APPLICATION_PROTOCOL_DEFINITION ( 'international standard', 'config_control_design', 1994, #40 ) ;
#71 = EDGE_CURVE ( 'NONE', #190, #190, #184, .T. ) ;
#72 = ORIENTED_EDGE ( 'NONE', *, *, #112, .T. ) ;
#73 = ADVANCED_FACE ( 'NONE', ( #46, #63 ), #85, .T. ) ;
#74 = AXIS2_PLACEMENT_3D ( 'NONE', #241, #106, #1 ) ;
#75 = ADVANCED_FACE ( 'NONE', ( #122, #172 ), #195, .T. ) ;
#76 = ORIENTED_EDGE ( 'NONE', *, *, #142, .T. ) ;
#77 = EDGE_LOOP ( 'NONE', ( #72 ) ) ;
#78 = ORIENTED_EDGE ( 'NONE', *, *, #112, .F. ) ;
#79 = AXIS2_PLACEMENT_3D ( 'NONE', #7, #13, #168 ) ;
#80 = DIRECTION ( 'NONE',  ( -3.491481338843133355E-15, 1.224646799147353207E-16, -1.000000000000000000 ) ) ;
#81 = CC_DESIGN_PERSON_AND_ORGANIZATION_ASSIGNMENT ( #128, #196, ( #167 ) ) ;
#82 = PLANE ( 'NONE',  #3 ) ;
#83 = PRODUCT_DEFINITION ( 'UNKNOWN', '', #101, #175 ) ;
#84 = FACE_OUTER_BOUND ( 'NONE', #30, .T. ) ;
#85 = CONICAL_SURFACE ( 'NONE', #212, 3.700000000000000178, 0.7853981633974482790 ) ;
#86 = AXIS2_PLACEMENT_3D ( 'NONE', #153, #222, #58 ) ;
#87 = FACE_OUTER_BOUND ( 'NONE', #77, .T. ) ;
#88 = DIRECTION ( 'NONE',  ( 4.275831445896958607E-31, 1.000000000000000000, 1.224646799147352961E-16 ) ) ;
#89 = DIRECTION ( 'NONE',  ( -3.491481338843133355E-15, 1.224646799147353207E-16, -1.000000000000000000 ) ) ;
#90 =( NAMED_UNIT ( * ) SI_UNIT ( $, .STERADIAN. ) SOLID_ANGLE_UNIT ( ) );
#91 = VERTEX_POINT ( 'NONE', #6 ) ;
#92 = PERSON_AND_ORGANIZATION_ROLE ( 'design_supplier' ) ;
#93 = CYLINDRICAL_SURFACE ( 'NONE', #61, 3.699999999999999289 ) ;
#94 = CIRCLE ( 'NONE', #150, 3.700000000000000178 ) ;
#95 = PERSON_AND_ORGANIZATION_ROLE ( 'creator' ) ;
#96 = CALENDAR_DATE ( 2024, 12, 7 ) ;
#97 = ORIENTED_EDGE ( 'NONE', *, *, #171, .F. ) ;
#98 = AXIS2_PLACEMENT_3D ( 'NONE', #43, #102, #191 ) ;
#99 = APPROVAL_ROLE ( '' ) ;
#100 = EDGE_LOOP ( 'NONE', ( #36 ) ) ;
#101 = PRODUCT_DEFINITION_FORMATION_WITH_SPECIFIED_SOURCE ( 'ANY', '', #235, .NOT_KNOWN. ) ;
#102 = DIRECTION ( 'NONE',  ( -3.491481338843133355E-15, 1.224646799147353207E-16, -1.000000000000000000 ) ) ;
#103 = CC_DESIGN_PERSON_AND_ORGANIZATION_ASSIGNMENT ( #31, #49, ( #235 ) ) ;
#104 = DIRECTION ( 'NONE',  ( 4.275831445896958607E-31, 1.000000000000000000, 1.224646799147353207E-16 ) ) ;
#105 = VERTEX_POINT ( 'NONE', #126 ) ;
#106 = DIRECTION ( 'NONE',  ( -3.491481338843133355E-15, 1.224646799147353207E-16, -1.000000000000000000 ) ) ;
#107 = DIRECTION ( 'NONE',  ( -3.491481338843133355E-15, 1.224646799147353207E-16, -1.000000000000000000 ) ) ;
#108 = PERSON_AND_ORGANIZATION ( #226, #20 ) ;
#109 = APPROVAL_PERSON_ORGANIZATION ( #219, #239, #99 ) ;
#110 = PERSON_AND_ORGANIZATION_ROLE ( 'creator' ) ;
#111 = VERTEX_POINT ( 'NONE', #215 ) ;
#112 = EDGE_CURVE ( 'NONE', #105, #105, #207, .T. ) ;
#113 = DIRECTION ( 'NONE',  ( 4.275831445896958607E-31, 1.000000000000000000, 1.224646799147353207E-16 ) ) ;
#114 = APPLICATION_PROTOCOL_DEFINITION ( 'international standard', 'config_control_design', 1994, #66 ) ;
#115 = AXIS2_PLACEMENT_3D ( 'NONE', #206, #21, #188 ) ;
#116 = CARTESIAN_POINT ( 'NONE',  ( 3.421138828918010427E-46, 4.000000000000000000, 0.000000000000000000 ) ) ;
#117 = APPROVAL_DATE_TIME ( #34, #239 ) ;
#118 = EDGE_CURVE ( 'NONE', #111, #111, #16, .T. ) ;
#119 = CARTESIAN_POINT ( 'NONE',  ( 0.000000000000000000, 0.000000000000000000, 0.000000000000000000 ) ) ;
#120 = CYLINDRICAL_SURFACE ( 'NONE', #74, 3.999999999999998224 ) ;
#121 = CARTESIAN_POINT ( 'NONE',  ( 2.618611004132350143E-13, 2.624579619658238224E-32, 75.00000000000000000 ) ) ;
#122 = FACE_OUTER_BOUND ( 'NONE', #132, .T. ) ;
#123 = CIRCLE ( 'NONE', #79, 4.000000000000000000 ) ;
#124 = FACE_OUTER_BOUND ( 'NONE', #165, .T. ) ;
#125 = PERSON_AND_ORGANIZATION ( #226, #20 ) ;
#126 = CARTESIAN_POINT ( 'NONE',  ( 2.601153597438134034E-13, 3.999999999999992450, 74.50000000000000000 ) ) ;
#127 = CIRCLE ( 'NONE', #98, 3.500000000000001332 ) ;
#128 = PERSON_AND_ORGANIZATION ( #226, #20 ) ;
#129 = EDGE_LOOP ( 'NONE', ( #76 ) ) ;
#130 = APPROVAL_PERSON_ORGANIZATION ( #125, #35, #214 ) ;
#131 = CC_DESIGN_PERSON_AND_ORGANIZATION_ASSIGNMENT ( #5, #92, ( #101 ) ) ;
#132 = EDGE_LOOP ( 'NONE', ( #78 ) ) ;
#133 = CC_DESIGN_PERSON_AND_ORGANIZATION_ASSIGNMENT ( #108, #95, ( #83 ) ) ;
#134 = CARTESIAN_POINT ( 'NONE',  ( 0.000000000000000000, 0.000000000000000000, 0.000000000000000000 ) ) ;
#135 = ORIENTED_EDGE ( 'NONE', *, *, #118, .F. ) ;
#136 = CARTESIAN_POINT ( 'NONE',  ( -1.710332578358783092E-30, 5.999039130647430431E-32, -4.898587196589412829E-16 ) ) ;
#137 = DIRECTION ( 'NONE',  ( 0.000000000000000000, 1.000000000000000000, 0.000000000000000000 ) ) ;
#138 = CC_DESIGN_APPROVAL ( #239, ( #167 ) ) ;
#139 = DIRECTION ( 'NONE',  ( 0.000000000000000000, 1.000000000000000000, 0.000000000000000000 ) ) ;
#140 = DIRECTION ( 'NONE',  ( 4.275831445896958607E-31, 1.000000000000000000, 1.224646799147353207E-16 ) ) ;
#141 = FACE_OUTER_BOUND ( 'NONE', #129, .T. ) ;
#142 = EDGE_CURVE ( 'NONE', #178, #178, #223, .T. ) ;
#143 = DATE_TIME_ROLE ( 'creation_date' ) ;
#144 = DATE_AND_TIME ( #228, #229 ) ;
#145 = COORDINATED_UNIVERSAL_TIME_OFFSET ( 1, 0, .AHEAD. ) ;
#146 = AXIS2_PLACEMENT_3D ( 'NONE', #174, #170, #139 ) ;
#147 = CARTESIAN_POINT ( 'NONE',  ( 0.000000000000000000, 0.000000000000000000, 0.000000000000000000 ) ) ;
#148 = ADVANCED_BREP_SHAPE_REPRESENTATION ( '976396', ( #201, #44, #42 ), #231 ) ;
#149 = ORIENTED_EDGE ( 'NONE', *, *, #14, .F. ) ;
#150 = AXIS2_PLACEMENT_3D ( 'NONE', #2, #47, #60 ) ;
#151 = ORIENTED_EDGE ( 'NONE', *, *, #118, .T. ) ;
#152 = FACE_OUTER_BOUND ( 'NONE', #187, .T. ) ;
#153 = CARTESIAN_POINT ( 'NONE',  ( 2.601153597438134034E-13, -9.123618653647781159E-15, 74.50000000000000000 ) ) ;
#154 = PLANE ( 'NONE',  #115 ) ;
#155 = CLOSED_SHELL ( 'NONE', ( #181, #24, #73, #205, #75, #236 ) ) ;
#156 = CC_DESIGN_DATE_AND_TIME_ASSIGNMENT ( #144, #143, ( #83 ) ) ;
#157 = DIRECTION ( 'NONE',  ( 0.000000000000000000, 1.000000000000000000, 0.000000000000000000 ) ) ;
#158 = VERTEX_POINT ( 'NONE', #192 ) ;
#159 = APPROVAL_DATE_TIME ( #8, #12 ) ;
#160 = AXIS2_PLACEMENT_3D ( 'NONE', #136, #211, #140 ) ;
#161 = COORDINATED_UNIVERSAL_TIME_OFFSET ( 1, 0, .AHEAD. ) ;
#162 = CALENDAR_DATE ( 2024, 12, 7 ) ;
#163 = ORIENTED_EDGE ( 'NONE', *, *, #71, .T. ) ;
#164 = APPROVAL_PERSON_ORGANIZATION ( #25, #12, #9 ) ;
#165 = EDGE_LOOP ( 'NONE', ( #163 ) ) ;
#166 = DATE_TIME_ROLE ( 'classification_date' ) ;
#167 = SECURITY_CLASSIFICATION ( '', '', #68 ) ;
#168 = DIRECTION ( 'NONE',  ( 0.000000000000000000, 1.000000000000000000, 0.000000000000000000 ) ) ;
#169 = DIRECTION ( 'NONE',  ( -4.275831445896958607E-31, -1.000000000000000000, -1.224646799147353207E-16 ) ) ;
#170 = DIRECTION ( 'NONE',  ( -3.491481338843133355E-15, 1.224646799147353207E-16, -1.000000000000000000 ) ) ;
#171 = EDGE_CURVE ( 'NONE', #91, #91, #127, .T. ) ;
#172 = FACE_BOUND ( 'NONE', #220, .T. ) ;
#173 = CARTESIAN_POINT ( 'NONE',  ( 3.491481338843133355E-14, -1.224646799147353256E-15, 10.00000000000000000 ) ) ;
#174 = CARTESIAN_POINT ( 'NONE',  ( 2.618611004132350143E-13, -9.184850993605148733E-15, 75.00000000000000000 ) ) ;
#175 = DESIGN_CONTEXT ( 'detailed design', #66, 'design' ) ;
#176 = APPROVAL_STATUS ( 'not_yet_approved' ) ;
#177 = LOCAL_TIME ( 11, 23, 13.00000000000000000, #161 ) ;
#178 = VERTEX_POINT ( 'NONE', #116 ) ;
#179 = FACE_OUTER_BOUND ( 'NONE', #204, .T. ) ;
#180 = CALENDAR_DATE ( 2024, 12, 7 ) ;
#181 = ADVANCED_FACE ( 'NONE', ( #124 ), #154, .F. ) ;
#182 = AXIS2_PLACEMENT_3D ( 'NONE', #134, #80, #113 ) ;
#183 = APPROVAL_STATUS ( 'not_yet_approved' ) ;
#184 = CIRCLE ( 'NONE', #65, 3.699999999999998845 ) ;
#185 = EDGE_LOOP ( 'NONE', ( #135 ) ) ;
#186 = DATE_AND_TIME ( #162, #54 ) ;
#187 = EDGE_LOOP ( 'NONE', ( #28 ) ) ;
#188 = DIRECTION ( 'NONE',  ( -4.275831445896958607E-31, -1.000000000000000000, -1.224646799147353207E-16 ) ) ;
#189 = VERTEX_POINT ( 'NONE', #18 ) ;
#190 = VERTEX_POINT ( 'NONE', #19 ) ;
#191 = DIRECTION ( 'NONE',  ( 0.000000000000000000, 1.000000000000000000, 0.000000000000000000 ) ) ;
#192 = CARTESIAN_POINT ( 'NONE',  ( 3.491481338843133355E-14, 3.999999999999999112, 10.00000000000000000 ) ) ;
#193 = DIRECTION ( 'NONE',  ( 1.000000000000000000, 0.000000000000000000, 0.000000000000000000 ) ) ;
#194 = APPROVAL_DATE_TIME ( #51, #35 ) ;
#195 = CONICAL_SURFACE ( 'NONE', #146, 3.500000000000001332, 0.7853981633974482790 ) ;
#196 = PERSON_AND_ORGANIZATION_ROLE ( 'classification_officer' ) ;
#197 = EDGE_LOOP ( 'NONE', ( #39 ) ) ;
#198 =( NAMED_UNIT ( * ) PLANE_ANGLE_UNIT ( ) SI_UNIT ( $, .RADIAN. ) );
#199 = ADVANCED_FACE ( 'NONE', ( #41 ), #45, .T. ) ;
#200 = DIRECTION ( 'NONE',  ( 0.000000000000000000, 0.000000000000000000, 1.000000000000000000 ) ) ;
#201 = MANIFOLD_SOLID_BREP ( 'Corps-Déplacer/Copier1[1]', #155 ) ;
#202 = ORIENTED_EDGE ( 'NONE', *, *, #33, .F. ) ;
#203 = ORIENTED_EDGE ( 'NONE', *, *, #71, .F. ) ;
#204 = EDGE_LOOP ( 'NONE', ( #203 ) ) ;
#205 = ADVANCED_FACE ( 'NONE', ( #240, #87 ), #120, .T. ) ;
#206 = CARTESIAN_POINT ( 'NONE',  ( 3.491481338843133355E-14, 2.774555597924434385E-32, 10.00000000000000000 ) ) ;
#207 = CIRCLE ( 'NONE', #86, 4.000000000000001776 ) ;
#208 = DIRECTION ( 'NONE',  ( 3.491481338843133355E-15, -1.224646799147353207E-16, 1.000000000000000000 ) ) ;
#209 = DIRECTION ( 'NONE',  ( -3.491481338843133355E-15, 1.224646799147353207E-16, -1.000000000000000000 ) ) ;
#210 = CARTESIAN_POINT ( 'NONE',  ( 1.197578099223194552E-13, -4.200538521075421419E-15, 34.29999999999999716 ) ) ;
#211 = DIRECTION ( 'NONE',  ( -3.491481338843133355E-15, 1.224646799147353207E-16, -1.000000000000000000 ) ) ;
#212 = AXIS2_PLACEMENT_3D ( 'NONE', #23, #208, #221 ) ;
#213 =( LENGTH_UNIT ( ) NAMED_UNIT ( * ) SI_UNIT ( .MILLI., .METRE. ) );
#214 = APPROVAL_ROLE ( '' ) ;
#215 = CARTESIAN_POINT ( 'NONE',  ( 1.197578099223194552E-13, 3.999999999999990674, 34.29999999999999716 ) ) ;
#216 = SHAPE_DEFINITION_REPRESENTATION ( #232, #148 ) ;
#217 = FACE_OUTER_BOUND ( 'NONE', #100, .T. ) ;
#218 = CC_DESIGN_APPROVAL ( #12, ( #83 ) ) ;
#219 = PERSON_AND_ORGANIZATION ( #226, #20 ) ;
#220 = EDGE_LOOP ( 'NONE', ( #52 ) ) ;
#221 = DIRECTION ( 'NONE',  ( 0.000000000000000000, -1.000000000000000000, 0.000000000000000000 ) ) ;
#222 = DIRECTION ( 'NONE',  ( -3.491481338843133355E-15, 1.224646799147353207E-16, -1.000000000000000000 ) ) ;
#223 = CIRCLE ( 'NONE', #160, 4.000000000000000000 ) ;
#224 = PLANE ( 'NONE',  #69 ) ;
#225 = DIRECTION ( 'NONE',  ( -3.491481338843133355E-15, 1.224646799147353207E-16, -1.000000000000000000 ) ) ;
#226 = PERSON ( 'UNSPECIFIED', 'UNSPECIFIED', 'UNSPECIFIED', ('UNSPECIFIED'), ('UNSPECIFIED'), ('UNSPECIFIED') ) ;
#227 = DIRECTION ( 'NONE',  ( 4.275831445896958607E-31, 1.000000000000000000, 1.224646799147353207E-16 ) ) ;
#228 = CALENDAR_DATE ( 2024, 12, 7 ) ;
#229 = LOCAL_TIME ( 11, 23, 13.00000000000000000, #67 ) ;
#230 = PERSON_AND_ORGANIZATION ( #226, #20 ) ;
#231 =( GEOMETRIC_REPRESENTATION_CONTEXT ( 3 ) GLOBAL_UNCERTAINTY_ASSIGNED_CONTEXT ( ( #4 ) ) GLOBAL_UNIT_ASSIGNED_CONTEXT ( ( #213, #198, #90 ) ) REPRESENTATION_CONTEXT ( 'NONE', 'WORKASPACE' ) );
#232 = PRODUCT_DEFINITION_SHAPE ( 'NONE', 'NONE',  #83 ) ;
#233 = LOCAL_TIME ( 11, 23, 13.00000000000000000, #55 ) ;
#234 = EDGE_LOOP ( 'NONE', ( #202 ) ) ;
#235 = PRODUCT ( '976396', '976396', '', ( #29 ) ) ;
#236 = ADVANCED_FACE ( 'NONE', ( #84 ), #224, .F. ) ;
#237 = LOCAL_TIME ( 11, 23, 13.00000000000000000, #145 ) ;
#238 = CYLINDRICAL_SURFACE ( 'NONE', #182, 4.000000000000000000 ) ;
#239 = APPROVAL ( #15, 'UNSPECIFIED' ) ;
#240 = FACE_OUTER_BOUND ( 'NONE', #185, .T. ) ;
#241 = CARTESIAN_POINT ( 'NONE',  ( 0.000000000000000000, 0.000000000000000000, 0.000000000000000000 ) ) ;
#242 = AXIS2_PLACEMENT_3D ( 'NONE', #210, #225, #137 ) ;
#243 = CARTESIAN_POINT ( 'NONE',  ( 3.491481338843133355E-14, 2.999519565323713574E-32, 10.00000000000000000 ) ) ;
ENDSEC;
END-ISO-10303-21;
