ISO-10303-21;
HEADER;
FILE_DESCRIPTION (( 'STEP AP203' ),
    '1' );
FILE_NAME ('976395.step',
    '2024-07-12T09:23:12',
    ( '' ),
    ( '' ),
    'SwSTEP 2.0',
    'SolidWorks 2022',
    '' );
FILE_SCHEMA (( 'CONFIG_CONTROL_DESIGN' ));
ENDSEC;

DATA;
#1 = EDGE_CURVE ( 'NONE', #159, #159, #134, .T. ) ;
#2 = APPROVAL_STATUS ( 'not_yet_approved' ) ;
#3 = DATE_AND_TIME ( #27, #49 ) ;
#4 = EDGE_LOOP ( 'NONE', ( #176 ) ) ;
#5 = APPROVAL_DATE_TIME ( #202, #25 ) ;
#6 = FACE_OUTER_BOUND ( 'NONE', #24, .T. ) ;
#7 = DIRECTION ( 'NONE',  ( 0.000000000000000000, 1.000000000000000000, 0.000000000000000000 ) ) ;
#8 = CARTESIAN_POINT ( 'NONE',  ( 4.992818314545680067E-14, -1.751244922780714709E-15, 14.29999999999999893 ) ) ;
#9 = MANIFOLD_SOLID_BREP ( 'Corps-Déplacer/Copier1[2]', #227 ) ;
#10 = ADVANCED_FACE ( 'NONE', ( #6, #65 ), #238, .T. ) ;
#11 = CARTESIAN_POINT ( 'NONE',  ( 2.199633243471174140E-13, -7.715274834628325378E-15, 63.00000000000000000 ) ) ;
#12 = CARTESIAN_POINT ( 'NONE',  ( 2.182175836776958284E-13, -7.654042494670957804E-15, 62.50000000000000000 ) ) ;
#13 = CARTESIAN_POINT ( 'NONE',  ( 2.199633243471174140E-13, -7.715274834628325378E-15, 63.00000000000000000 ) ) ;
#14 = FACE_OUTER_BOUND ( 'NONE', #139, .T. ) ;
#15 = APPLICATION_CONTEXT ( 'configuration controlled 3d designs of mechanical parts and assemblies' ) ;
#16 = APPROVAL ( #2, 'UNSPECIFIED' ) ;
#17 = DIRECTION ( 'NONE',  ( 4.275831445896957731E-31, 1.000000000000000000, 1.224646799147353207E-16 ) ) ;
#18 = CIRCLE ( 'NONE', #42, 3.999999999999998224 ) ;
#19 = PERSON_AND_ORGANIZATION_ROLE ( 'design_owner' ) ;
#20 = EDGE_LOOP ( 'NONE', ( #76 ) ) ;
#21 = CALENDAR_DATE ( 2024, 12, 7 ) ;
#22 = AXIS2_PLACEMENT_3D ( 'NONE', #13, #94, #236 ) ;
#23 = SHAPE_DEFINITION_REPRESENTATION ( #141, #101 ) ;
#24 = EDGE_LOOP ( 'NONE', ( #104 ) ) ;
#25 = APPROVAL ( #59, 'UNSPECIFIED' ) ;
#26 = ORIENTED_EDGE ( 'NONE', *, *, #114, .T. ) ;
#27 = CALENDAR_DATE ( 2024, 12, 7 ) ;
#28 = DIRECTION ( 'NONE',  ( 4.275831445896958607E-31, 1.000000000000000000, 1.224646799147353207E-16 ) ) ;
#29 = CONICAL_SURFACE ( 'NONE', #36, 3.499999999999998224, 0.7853981633974479459 ) ;
#30 = PLANE ( 'NONE',  #48 ) ;
#31 = CARTESIAN_POINT ( 'NONE',  ( -8.551662891793915461E-31, 2.999519565323715216E-32, -2.449293598294706414E-16 ) ) ;
#32 = CALENDAR_DATE ( 2024, 12, 7 ) ;
#33 = CC_DESIGN_APPROVAL ( #70, ( #233 ) ) ;
#34 = CARTESIAN_POINT ( 'NONE',  ( 0.000000000000000000, 0.000000000000000000, 0.000000000000000000 ) ) ;
#35 = APPLICATION_PROTOCOL_DEFINITION ( 'international standard', 'config_control_design', 1994, #228 ) ;
#36 = AXIS2_PLACEMENT_3D ( 'NONE', #11, #172, #7 ) ;
#37 = CC_DESIGN_SECURITY_CLASSIFICATION ( #233, ( #211 ) ) ;
#38 = CARTESIAN_POINT ( 'NONE',  ( 2.444036937190192718E-14, -8.572527594031471218E-16, 6.999999999999998224 ) ) ;
#39 = ORIENTED_EDGE ( 'NONE', *, *, #118, .F. ) ;
#40 = PERSON_AND_ORGANIZATION ( #243, #79 ) ;
#41 = ORIENTED_EDGE ( 'NONE', *, *, #1, .F. ) ;
#42 = AXIS2_PLACEMENT_3D ( 'NONE', #12, #46, #153 ) ;
#43 = FACE_OUTER_BOUND ( 'NONE', #140, .T. ) ;
#44 = COORDINATED_UNIVERSAL_TIME_OFFSET ( 1, 0, .AHEAD. ) ;
#45 = CC_DESIGN_PERSON_AND_ORGANIZATION_ASSIGNMENT ( #218, #19, ( #174 ) ) ;
#46 = DIRECTION ( 'NONE',  ( -3.491481338843133355E-15, 1.224646799147353207E-16, -1.000000000000000000 ) ) ;
#47 = PLANE ( 'NONE',  #239 ) ;
#48 = AXIS2_PLACEMENT_3D ( 'NONE', #62, #170, #69 ) ;
#49 = LOCAL_TIME ( 11, 23, 12.00000000000000000, #63 ) ;
#50 = CARTESIAN_POINT ( 'NONE',  ( 4.888073874380386066E-14, -1.714505518806294441E-15, 13.99999999999999822 ) ) ;
#51 = CARTESIAN_POINT ( 'NONE',  ( 2.182175836776958284E-13, 3.999999999999990674, 62.50000000000000000 ) ) ;
#52 = AXIS2_PLACEMENT_3D ( 'NONE', #124, #109, #28 ) ;
#53 =( NAMED_UNIT ( * ) PLANE_ANGLE_UNIT ( ) SI_UNIT ( $, .RADIAN. ) );
#54 = ADVANCED_FACE ( 'NONE', ( #190, #43 ), #231, .T. ) ;
#55 = AXIS2_PLACEMENT_3D ( 'NONE', #208, #85, #156 ) ;
#56 = CC_DESIGN_APPROVAL ( #16, ( #111 ) ) ;
#57 = APPLICATION_PROTOCOL_DEFINITION ( 'international standard', 'config_control_design', 1994, #15 ) ;
#58 = DATE_TIME_ROLE ( 'creation_date' ) ;
#59 = APPROVAL_STATUS ( 'not_yet_approved' ) ;
#60 = DATE_AND_TIME ( #78, #138 ) ;
#61 = CC_DESIGN_PERSON_AND_ORGANIZATION_ASSIGNMENT ( #40, #186, ( #111 ) ) ;
#62 = CARTESIAN_POINT ( 'NONE',  ( 2.444036937190193033E-14, 2.774555597924434932E-32, 6.999999999999999112 ) ) ;
#63 = COORDINATED_UNIVERSAL_TIME_OFFSET ( 1, 0, .AHEAD. ) ;
#64 = EDGE_CURVE ( 'NONE', #97, #97, #18, .T. ) ;
#65 = FACE_BOUND ( 'NONE', #120, .T. ) ;
#66 = FACE_OUTER_BOUND ( 'NONE', #80, .T. ) ;
#67 = CARTESIAN_POINT ( 'NONE',  ( 4.888073874380386066E-14, -1.714505518806294441E-15, 13.99999999999999822 ) ) ;
#68 = FACE_OUTER_BOUND ( 'NONE', #89, .T. ) ;
#69 = DIRECTION ( 'NONE',  ( -4.275831445896958607E-31, -1.000000000000000000, -1.224646799147353207E-16 ) ) ;
#70 = APPROVAL ( #151, 'UNSPECIFIED' ) ;
#71 = VERTEX_POINT ( 'NONE', #235 ) ;
#72 = ADVANCED_FACE ( 'NONE', ( #225, #126 ), #29, .T. ) ;
#73 = VERTEX_POINT ( 'NONE', #194 ) ;
#74 = AXIS2_PLACEMENT_3D ( 'NONE', #50, #87, #206 ) ;
#75 = PLANE ( 'NONE',  #90 ) ;
#76 = ORIENTED_EDGE ( 'NONE', *, *, #64, .T. ) ;
#77 = APPROVAL_ROLE ( '' ) ;
#78 = CALENDAR_DATE ( 2024, 12, 7 ) ;
#79 = ORGANIZATION ( 'UNSPECIFIED', 'UNSPECIFIED', '' ) ;
#80 = EDGE_LOOP ( 'NONE', ( #229 ) ) ;
#81 = DATE_TIME_ROLE ( 'classification_date' ) ;
#82 = CC_DESIGN_PERSON_AND_ORGANIZATION_ASSIGNMENT ( #121, #166, ( #233 ) ) ;
#83 = ORIENTED_EDGE ( 'NONE', *, *, #114, .F. ) ;
#84 = APPROVAL_ROLE ( '' ) ;
#85 = DIRECTION ( 'NONE',  ( -3.491481338843133355E-15, 1.224646799147353207E-16, -1.000000000000000000 ) ) ;
#86 = DIRECTION ( 'NONE',  ( 4.275831445896958607E-31, 1.000000000000000000, 1.224646799147353207E-16 ) ) ;
#87 = DIRECTION ( 'NONE',  ( 3.491481338843133355E-15, -1.224646799147353207E-16, 1.000000000000000000 ) ) ;
#88 = DIRECTION ( 'NONE',  ( -3.491481338843133355E-15, 1.224646799147353207E-16, -1.000000000000000000 ) ) ;
#89 = EDGE_LOOP ( 'NONE', ( #185 ) ) ;
#90 = AXIS2_PLACEMENT_3D ( 'NONE', #146, #133, #160 ) ;
#91 = FACE_OUTER_BOUND ( 'NONE', #4, .T. ) ;
#92 = CARTESIAN_POINT ( 'NONE',  ( 2.444036937190193033E-14, 3.699999999999998845, 6.999999999999999112 ) ) ;
#93 = ADVANCED_FACE ( 'NONE', ( #108, #66 ), #143, .T. ) ;
#94 = DIRECTION ( 'NONE',  ( -3.491481338843133355E-15, 1.224646799147353207E-16, -1.000000000000000000 ) ) ;
#95 = AXIS2_PLACEMENT_3D ( 'NONE', #8, #230, #212 ) ;
#96 = CIRCLE ( 'NONE', #95, 3.999999999999994227 ) ;
#97 = VERTEX_POINT ( 'NONE', #51 ) ;
#98 = CARTESIAN_POINT ( 'NONE',  ( 0.000000000000000000, 0.000000000000000000, 0.000000000000000000 ) ) ;
#99 = ADVANCED_FACE ( 'NONE', ( #127 ), #157, .F. ) ;
#100 = DATE_AND_TIME ( #169, #200 ) ;
#101 = ADVANCED_BREP_SHAPE_REPRESENTATION ( '976395', ( #162, #9, #205 ), #112 ) ;
#102 = SECURITY_CLASSIFICATION_LEVEL ( 'unclassified' ) ;
#103 = CC_DESIGN_APPROVAL ( #25, ( #211 ) ) ;
#104 = ORIENTED_EDGE ( 'NONE', *, *, #118, .T. ) ;
#105 = COORDINATED_UNIVERSAL_TIME_OFFSET ( 1, 0, .AHEAD. ) ;
#106 = DIRECTION ( 'NONE',  ( 4.275831445896958607E-31, 1.000000000000000000, 1.224646799147353207E-16 ) ) ;
#107 = ORIENTED_EDGE ( 'NONE', *, *, #201, .T. ) ;
#108 = FACE_OUTER_BOUND ( 'NONE', #152, .T. ) ;
#109 = DIRECTION ( 'NONE',  ( -3.491481338843133355E-15, 1.224646799147353207E-16, -1.000000000000000000 ) ) ;
#110 = EDGE_LOOP ( 'NONE', ( #193 ) ) ;
#111 = PRODUCT_DEFINITION ( 'UNKNOWN', '', #211, #125 ) ;
#112 =( GEOMETRIC_REPRESENTATION_CONTEXT ( 3 ) GLOBAL_UNCERTAINTY_ASSIGNED_CONTEXT ( ( #168 ) ) GLOBAL_UNIT_ASSIGNED_CONTEXT ( ( #213, #53, #198 ) ) REPRESENTATION_CONTEXT ( 'NONE', 'WORKASPACE' ) );
#113 = DIRECTION ( 'NONE',  ( -3.491481338843133355E-15, 1.224646799147353207E-16, -1.000000000000000000 ) ) ;
#114 = EDGE_CURVE ( 'NONE', #164, #164, #136, .T. ) ;
#115 = CARTESIAN_POINT ( 'NONE',  ( 4.888073874380386066E-14, 3.699999999999998401, 13.99999999999999822 ) ) ;
#116 = FACE_OUTER_BOUND ( 'NONE', #20, .T. ) ;
#117 = CIRCLE ( 'NONE', #199, 4.000000000000000000 ) ;
#118 = EDGE_CURVE ( 'NONE', #71, #71, #96, .T. ) ;
#119 = PERSON_AND_ORGANIZATION ( #243, #79 ) ;
#120 = EDGE_LOOP ( 'NONE', ( #41 ) ) ;
#121 = PERSON_AND_ORGANIZATION ( #243, #79 ) ;
#122 = ORIENTED_EDGE ( 'NONE', *, *, #173, .T. ) ;
#123 = LOCAL_TIME ( 11, 23, 12.00000000000000000, #219 ) ;
#124 = CARTESIAN_POINT ( 'NONE',  ( 2.199633243471174140E-13, 2.624579619658238224E-32, 63.00000000000000000 ) ) ;
#125 = DESIGN_CONTEXT ( 'detailed design', #15, 'design' ) ;
#126 = FACE_BOUND ( 'NONE', #224, .T. ) ;
#127 = FACE_OUTER_BOUND ( 'NONE', #203, .T. ) ;
#128 = DIRECTION ( 'NONE',  ( -3.491481338843133355E-15, 1.224646799147353207E-16, -1.000000000000000000 ) ) ;
#129 = APPROVAL_PERSON_ORGANIZATION ( #165, #16, #77 ) ;
#130 = CARTESIAN_POINT ( 'NONE',  ( -1.710332578358783092E-30, 5.999039130647430431E-32, -4.898587196589412829E-16 ) ) ;
#131 = PRODUCT_RELATED_PRODUCT_CATEGORY ( 'detail', '', ( #174 ) ) ;
#132 = COORDINATED_UNIVERSAL_TIME_OFFSET ( 1, 0, .AHEAD. ) ;
#133 = DIRECTION ( 'NONE',  ( 3.491481338843133355E-15, -1.224646799147353207E-16, 1.000000000000000000 ) ) ;
#134 = CIRCLE ( 'NONE', #148, 3.700000000000000178 ) ;
#135 = DIRECTION ( 'NONE',  ( 1.000000000000000000, 0.000000000000000000, 0.000000000000000000 ) ) ;
#136 = CIRCLE ( 'NONE', #163, 3.699999999999999734 ) ;
#137 = EDGE_CURVE ( 'NONE', #242, #242, #150, .T. ) ;
#138 = LOCAL_TIME ( 11, 23, 12.00000000000000000, #44 ) ;
#139 = EDGE_LOOP ( 'NONE', ( #39 ) ) ;
#140 = EDGE_LOOP ( 'NONE', ( #83 ) ) ;
#141 = PRODUCT_DEFINITION_SHAPE ( 'NONE', 'NONE',  #111 ) ;
#142 = ADVANCED_FACE ( 'NONE', ( #68 ), #47, .T. ) ;
#143 = CYLINDRICAL_SURFACE ( 'NONE', #220, 4.000000000000000000 ) ;
#144 = DIRECTION ( 'NONE',  ( 8.328345705458318623E-31, 1.000000000000000000, 2.344220913482172149E-16 ) ) ;
#145 = DIRECTION ( 'NONE',  ( -3.491481338843133355E-15, 1.224646799147353207E-16, -1.000000000000000000 ) ) ;
#146 = CARTESIAN_POINT ( 'NONE',  ( 2.444036937190193033E-14, 2.999519565323713574E-32, 6.999999999999999112 ) ) ;
#147 = VERTEX_POINT ( 'NONE', #196 ) ;
#148 = AXIS2_PLACEMENT_3D ( 'NONE', #67, #88, #191 ) ;
#149 = PERSON_AND_ORGANIZATION_ROLE ( 'design_supplier' ) ;
#150 = CIRCLE ( 'NONE', #210, 4.000000000000000000 ) ;
#151 = APPROVAL_STATUS ( 'not_yet_approved' ) ;
#152 = EDGE_LOOP ( 'NONE', ( #122 ) ) ;
#153 = DIRECTION ( 'NONE',  ( 0.000000000000000000, 1.000000000000000000, 0.000000000000000000 ) ) ;
#154 = ORIENTED_EDGE ( 'NONE', *, *, #201, .F. ) ;
#155 = ADVANCED_FACE ( 'NONE', ( #192 ), #30, .F. ) ;
#156 = DIRECTION ( 'NONE',  ( 4.275831445896958607E-31, 1.000000000000000000, 1.224646799147352961E-16 ) ) ;
#157 = PLANE ( 'NONE',  #52 ) ;
#158 = CARTESIAN_POINT ( 'NONE',  ( 0.000000000000000000, 0.000000000000000000, 0.000000000000000000 ) ) ;
#159 = VERTEX_POINT ( 'NONE', #115 ) ;
#160 = DIRECTION ( 'NONE',  ( -4.275831445896958607E-31, -1.000000000000000000, -1.224646799147353207E-16 ) ) ;
#161 = CC_DESIGN_DATE_AND_TIME_ASSIGNMENT ( #3, #81, ( #233 ) ) ;
#162 = MANIFOLD_SOLID_BREP ( 'Corps-Déplacer/Copier1[1]', #232 ) ;
#163 = AXIS2_PLACEMENT_3D ( 'NONE', #175, #128, #144 ) ;
#164 = VERTEX_POINT ( 'NONE', #92 ) ;
#165 = PERSON_AND_ORGANIZATION ( #243, #79 ) ;
#166 = PERSON_AND_ORGANIZATION_ROLE ( 'classification_officer' ) ;
#167 = LOCAL_TIME ( 11, 23, 12.00000000000000000, #132 ) ;
#168 = UNCERTAINTY_MEASURE_WITH_UNIT (LENGTH_MEASURE( 1.000000000000000082E-05 ), #213, 'distance_accuracy_value', 'NONE');
#169 = CALENDAR_DATE ( 2024, 12, 7 ) ;
#170 = DIRECTION ( 'NONE',  ( 3.491481338843133355E-15, -1.224646799147353207E-16, 1.000000000000000000 ) ) ;
#171 = APPROVAL_DATE_TIME ( #60, #70 ) ;
#172 = DIRECTION ( 'NONE',  ( -3.491481338843133355E-15, 1.224646799147353207E-16, -1.000000000000000000 ) ) ;
#173 = EDGE_CURVE ( 'NONE', #73, #73, #117, .T. ) ;
#174 = PRODUCT ( '976395', '976395', '', ( #179 ) ) ;
#175 = CARTESIAN_POINT ( 'NONE',  ( 2.444036937190192718E-14, -8.572527594031471218E-16, 6.999999999999998224 ) ) ;
#176 = ORIENTED_EDGE ( 'NONE', *, *, #173, .F. ) ;
#177 = ORIENTED_EDGE ( 'NONE', *, *, #1, .T. ) ;
#178 = DIRECTION ( 'NONE',  ( -3.491481338843133355E-15, 1.224646799147353207E-16, -1.000000000000000000 ) ) ;
#179 = MECHANICAL_CONTEXT ( 'NONE', #228, 'mechanical' ) ;
#180 = ADVANCED_FACE ( 'NONE', ( #14, #116 ), #181, .T. ) ;
#181 = CYLINDRICAL_SURFACE ( 'NONE', #187, 3.999999999999996447 ) ;
#182 = DIRECTION ( 'NONE',  ( 0.000000000000000000, 0.000000000000000000, 1.000000000000000000 ) ) ;
#183 = APPROVAL_DATE_TIME ( #221, #16 ) ;
#184 = EDGE_LOOP ( 'NONE', ( #26 ) ) ;
#185 = ORIENTED_EDGE ( 'NONE', *, *, #137, .T. ) ;
#186 = PERSON_AND_ORGANIZATION_ROLE ( 'creator' ) ;
#187 = AXIS2_PLACEMENT_3D ( 'NONE', #34, #113, #17 ) ;
#188 = DIRECTION ( 'NONE',  ( 4.275831445896958607E-31, 1.000000000000000000, 1.224646799147353207E-16 ) ) ;
#189 = PERSON_AND_ORGANIZATION ( #243, #79 ) ;
#190 = FACE_OUTER_BOUND ( 'NONE', #222, .T. ) ;
#191 = DIRECTION ( 'NONE',  ( 0.000000000000000000, 1.000000000000000000, 0.000000000000000000 ) ) ;
#192 = FACE_OUTER_BOUND ( 'NONE', #184, .T. ) ;
#193 = ORIENTED_EDGE ( 'NONE', *, *, #64, .F. ) ;
#194 = CARTESIAN_POINT ( 'NONE',  ( 2.444036937190193033E-14, 3.999999999999999112, 6.999999999999999112 ) ) ;
#195 = CC_DESIGN_PERSON_AND_ORGANIZATION_ASSIGNMENT ( #204, #207, ( #211 ) ) ;
#196 = CARTESIAN_POINT ( 'NONE',  ( 2.199633243471174140E-13, 3.499999999999990674, 63.00000000000000000 ) ) ;
#197 = CARTESIAN_POINT ( 'NONE',  ( 3.421138828918010427E-46, 4.000000000000000000, 0.000000000000000000 ) ) ;
#198 =( NAMED_UNIT ( * ) SI_UNIT ( $, .STERADIAN. ) SOLID_ANGLE_UNIT ( ) );
#199 = AXIS2_PLACEMENT_3D ( 'NONE', #38, #178, #237 ) ;
#200 = LOCAL_TIME ( 11, 23, 12.00000000000000000, #105 ) ;
#201 = EDGE_CURVE ( 'NONE', #147, #147, #216, .T. ) ;
#202 = DATE_AND_TIME ( #21, #123 ) ;
#203 = EDGE_LOOP ( 'NONE', ( #154 ) ) ;
#204 = PERSON_AND_ORGANIZATION ( #243, #79 ) ;
#205 = AXIS2_PLACEMENT_3D ( 'NONE', #98, #182, #135 ) ;
#206 = DIRECTION ( 'NONE',  ( 0.000000000000000000, -1.000000000000000000, 0.000000000000000000 ) ) ;
#207 = PERSON_AND_ORGANIZATION_ROLE ( 'creator' ) ;
#208 = CARTESIAN_POINT ( 'NONE',  ( 0.000000000000000000, 0.000000000000000000, 0.000000000000000000 ) ) ;
#209 = DIRECTION ( 'NONE',  ( -3.491481338843133355E-15, 1.224646799147353207E-16, -1.000000000000000000 ) ) ;
#210 = AXIS2_PLACEMENT_3D ( 'NONE', #130, #209, #106 ) ;
#211 = PRODUCT_DEFINITION_FORMATION_WITH_SPECIFIED_SOURCE ( 'ANY', '', #174, .NOT_KNOWN. ) ;
#212 = DIRECTION ( 'NONE',  ( 0.000000000000000000, 1.000000000000000000, 0.000000000000000000 ) ) ;
#213 =( LENGTH_UNIT ( ) NAMED_UNIT ( * ) SI_UNIT ( .MILLI., .METRE. ) );
#214 = CC_DESIGN_PERSON_AND_ORGANIZATION_ASSIGNMENT ( #226, #149, ( #211 ) ) ;
#215 = ADVANCED_FACE ( 'NONE', ( #91 ), #75, .T. ) ;
#216 = CIRCLE ( 'NONE', #22, 3.499999999999998224 ) ;
#217 = APPROVAL_PERSON_ORGANIZATION ( #119, #25, #84 ) ;
#218 = PERSON_AND_ORGANIZATION ( #243, #79 ) ;
#219 = COORDINATED_UNIVERSAL_TIME_OFFSET ( 1, 0, .AHEAD. ) ;
#220 = AXIS2_PLACEMENT_3D ( 'NONE', #158, #234, #86 ) ;
#221 = DATE_AND_TIME ( #32, #167 ) ;
#222 = EDGE_LOOP ( 'NONE', ( #177 ) ) ;
#223 = APPROVAL_ROLE ( '' ) ;
#224 = EDGE_LOOP ( 'NONE', ( #107 ) ) ;
#225 = FACE_OUTER_BOUND ( 'NONE', #110, .T. ) ;
#226 = PERSON_AND_ORGANIZATION ( #243, #79 ) ;
#227 = CLOSED_SHELL ( 'NONE', ( #142, #93, #215 ) ) ;
#228 = APPLICATION_CONTEXT ( 'configuration controlled 3d designs of mechanical parts and assemblies' ) ;
#229 = ORIENTED_EDGE ( 'NONE', *, *, #137, .F. ) ;
#230 = DIRECTION ( 'NONE',  ( -3.491481338843133355E-15, 1.224646799147353207E-16, -1.000000000000000000 ) ) ;
#231 = CYLINDRICAL_SURFACE ( 'NONE', #55, 3.700000000000000178 ) ;
#232 = CLOSED_SHELL ( 'NONE', ( #155, #54, #10, #180, #72, #99 ) ) ;
#233 = SECURITY_CLASSIFICATION ( '', '', #102 ) ;
#234 = DIRECTION ( 'NONE',  ( -3.491481338843133355E-15, 1.224646799147353207E-16, -1.000000000000000000 ) ) ;
#235 = CARTESIAN_POINT ( 'NONE',  ( 4.992818314545680067E-14, 3.999999999999992450, 14.29999999999999893 ) ) ;
#236 = DIRECTION ( 'NONE',  ( 0.000000000000000000, 1.000000000000000000, 0.000000000000000000 ) ) ;
#237 = DIRECTION ( 'NONE',  ( 7.703719777548943412E-31, 1.000000000000000000, 2.168404344971008868E-16 ) ) ;
#238 = CONICAL_SURFACE ( 'NONE', #74, 3.700000000000000178, 0.7853981633974381760 ) ;
#239 = AXIS2_PLACEMENT_3D ( 'NONE', #31, #145, #188 ) ;
#240 = CC_DESIGN_DATE_AND_TIME_ASSIGNMENT ( #100, #58, ( #111 ) ) ;
#241 = APPROVAL_PERSON_ORGANIZATION ( #189, #70, #223 ) ;
#242 = VERTEX_POINT ( 'NONE', #197 ) ;
#243 = PERSON ( 'UNSPECIFIED', 'UNSPECIFIED', 'UNSPECIFIED', ('UNSPECIFIED'), ('UNSPECIFIED'), ('UNSPECIFIED') ) ;
ENDSEC;
END-ISO-10303-21;
