ISO-10303-21;
HEADER;
FILE_DESCRIPTION (( 'STEP AP203' ),
    '1' );
FILE_NAME ('976394.step',
    '2024-07-12T09:23:11',
    ( '' ),
    ( '' ),
    'SwSTEP 2.0',
    'SolidWorks 2022',
    '' );
FILE_SCHEMA (( 'CONFIG_CONTROL_DESIGN' ));
ENDSEC;

DATA;
#1 = FACE_OUTER_BOUND ( 'NONE', #11, .T. ) ;
#2 = DIRECTION ( 'NONE',  ( -3.491481338843133355E-15, 1.224646799147353207E-16, -1.000000000000000000 ) ) ;
#3 = APPROVAL_DATE_TIME ( #131, #14 ) ;
#4 = APPROVAL_STATUS ( 'not_yet_approved' ) ;
#5 = APPROVAL_DATE_TIME ( #67, #135 ) ;
#6 = ORIENTED_EDGE ( 'NONE', *, *, #54, .T. ) ;
#7 = CARTESIAN_POINT ( 'NONE',  ( 2.618611004132350143E-13, 3.499999999999988010, 75.00000000000000000 ) ) ;
#8 = CONICAL_SURFACE ( 'NONE', #58, 3.200000000000000622, 0.7853981633974433940 ) ;
#9 = ORIENTED_EDGE ( 'NONE', *, *, #117, .T. ) ;
#10 = ADVANCED_FACE ( 'NONE', ( #130 ), #97, .T. ) ;
#11 = EDGE_LOOP ( 'NONE', ( #55 ) ) ;
#12 = EDGE_CURVE ( 'NONE', #41, #41, #51, .T. ) ;
#13 = EDGE_LOOP ( 'NONE', ( #78 ) ) ;
#14 = APPROVAL ( #4, 'UNSPECIFIED' ) ;
#15 = LOCAL_TIME ( 11, 23, 11.00000000000000000, #114 ) ;
#16 = FACE_OUTER_BOUND ( 'NONE', #136, .T. ) ;
#17 = VERTEX_POINT ( 'NONE', #226 ) ;
#18 = CARTESIAN_POINT ( 'NONE',  ( 2.601153597438134539E-13, -9.123618653647782737E-15, 74.50000000000001421 ) ) ;
#19 = DIRECTION ( 'NONE',  ( 4.275831445896958607E-31, 1.000000000000000000, 1.224646799147353207E-16 ) ) ;
#20 = CC_DESIGN_APPROVAL ( #103, ( #219 ) ) ;
#21 = ADVANCED_BREP_SHAPE_REPRESENTATION ( '976394', ( #134, #48, #201 ), #215 ) ;
#22 = ADVANCED_FACE ( 'NONE', ( #128, #109 ), #8, .T. ) ;
#23 = CARTESIAN_POINT ( 'NONE',  ( 2.793185071074506684E-14, 2.399615652258969983E-32, 8.000000000000000000 ) ) ;
#24 = DESIGN_CONTEXT ( 'detailed design', #202, 'design' ) ;
#25 = PERSON_AND_ORGANIZATION ( #177, #127 ) ;
#26 = ADVANCED_FACE ( 'NONE', ( #139 ), #121, .F. ) ;
#27 = PERSON_AND_ORGANIZATION_ROLE ( 'classification_officer' ) ;
#28 = CLOSED_SHELL ( 'NONE', ( #199, #208, #22, #35, #145, #26 ) ) ;
#29 =( NAMED_UNIT ( * ) PLANE_ANGLE_UNIT ( ) SI_UNIT ( $, .RADIAN. ) );
#30 = CARTESIAN_POINT ( 'NONE',  ( 1.187103655206665341E-13, -4.163799117101000559E-15, 34.00000000000000000 ) ) ;
#31 = MECHANICAL_CONTEXT ( 'NONE', #113, 'mechanical' ) ;
#32 = EDGE_LOOP ( 'NONE', ( #200 ) ) ;
#33 = PERSON_AND_ORGANIZATION ( #177, #127 ) ;
#34 = PRODUCT_DEFINITION_FORMATION_WITH_SPECIFIED_SOURCE ( 'ANY', '', #183, .NOT_KNOWN. ) ;
#35 = ADVANCED_FACE ( 'NONE', ( #102, #228 ), #99, .T. ) ;
#36 = CC_DESIGN_PERSON_AND_ORGANIZATION_ASSIGNMENT ( #162, #194, ( #34 ) ) ;
#37 = EDGE_LOOP ( 'NONE', ( #184 ) ) ;
#38 = EDGE_LOOP ( 'NONE', ( #50 ) ) ;
#39 = ORIENTED_EDGE ( 'NONE', *, *, #117, .F. ) ;
#40 = DIRECTION ( 'NONE',  ( 4.275831445896958607E-31, 1.000000000000000000, 1.224646799147353207E-16 ) ) ;
#41 = VERTEX_POINT ( 'NONE', #188 ) ;
#42 = DIRECTION ( 'NONE',  ( -3.491481338843133355E-15, 1.224646799147353207E-16, -1.000000000000000000 ) ) ;
#43 = DIRECTION ( 'NONE',  ( -3.491481338843133355E-15, 1.224646799147353207E-16, -1.000000000000000000 ) ) ;
#44 = DIRECTION ( 'NONE',  ( -3.491481338843133355E-15, 1.224646799147353207E-16, -1.000000000000000000 ) ) ;
#45 = AXIS2_PLACEMENT_3D ( 'NONE', #23, #169, #105 ) ;
#46 = CIRCLE ( 'NONE', #56, 3.999999999999997335 ) ;
#47 = APPLICATION_PROTOCOL_DEFINITION ( 'international standard', 'config_control_design', 1994, #202 ) ;
#48 = MANIFOLD_SOLID_BREP ( 'Corps-Déplacer/Copier1[2]', #141 ) ;
#49 = CARTESIAN_POINT ( 'NONE',  ( 2.793185071074506684E-14, 3.199999999999997957, 8.000000000000000000 ) ) ;
#50 = ORIENTED_EDGE ( 'NONE', *, *, #80, .F. ) ;
#51 = CIRCLE ( 'NONE', #227, 3.999999999999994671 ) ;
#52 = EDGE_LOOP ( 'NONE', ( #39 ) ) ;
#53 = CALENDAR_DATE ( 2024, 12, 7 ) ;
#54 = EDGE_CURVE ( 'NONE', #79, #79, #154, .T. ) ;
#55 = ORIENTED_EDGE ( 'NONE', *, *, #72, .F. ) ;
#56 = AXIS2_PLACEMENT_3D ( 'NONE', #18, #190, #60 ) ;
#57 = CC_DESIGN_SECURITY_CLASSIFICATION ( #219, ( #34 ) ) ;
#58 = AXIS2_PLACEMENT_3D ( 'NONE', #30, #221, #143 ) ;
#59 = CYLINDRICAL_SURFACE ( 'NONE', #173, 3.199999999999999734 ) ;
#60 = DIRECTION ( 'NONE',  ( 0.000000000000000000, 1.000000000000000000, 0.000000000000000000 ) ) ;
#61 = CIRCLE ( 'NONE', #181, 3.500000000000000000 ) ;
#62 = CARTESIAN_POINT ( 'NONE',  ( -1.496541006063935600E-30, 5.249159239316501627E-32, -4.286263797015736595E-16 ) ) ;
#63 = FACE_BOUND ( 'NONE', #116, .T. ) ;
#64 = CARTESIAN_POINT ( 'NONE',  ( 1.187103655206665341E-13, -4.163799117101000559E-15, 34.00000000000000000 ) ) ;
#65 = COORDINATED_UNIVERSAL_TIME_OFFSET ( 1, 0, .AHEAD. ) ;
#66 = CIRCLE ( 'NONE', #211, 3.199999999999998845 ) ;
#67 = DATE_AND_TIME ( #164, #140 ) ;
#68 = VERTEX_POINT ( 'NONE', #49 ) ;
#69 = DIRECTION ( 'NONE',  ( 0.000000000000000000, 0.000000000000000000, 1.000000000000000000 ) ) ;
#70 = CC_DESIGN_DATE_AND_TIME_ASSIGNMENT ( #233, #149, ( #171 ) ) ;
#71 = ORIENTED_EDGE ( 'NONE', *, *, #74, .T. ) ;
#72 = EDGE_CURVE ( 'NONE', #17, #17, #46, .T. ) ;
#73 = PRODUCT_RELATED_PRODUCT_CATEGORY ( 'detail', '', ( #183 ) ) ;
#74 = EDGE_CURVE ( 'NONE', #212, #212, #195, .T. ) ;
#75 = AXIS2_PLACEMENT_3D ( 'NONE', #62, #44, #242 ) ;
#76 = PERSON_AND_ORGANIZATION ( #177, #127 ) ;
#77 = EDGE_LOOP ( 'NONE', ( #179 ) ) ;
#78 = ORIENTED_EDGE ( 'NONE', *, *, #72, .T. ) ;
#79 = VERTEX_POINT ( 'NONE', #81 ) ;
#80 = EDGE_CURVE ( 'NONE', #218, #218, #92, .T. ) ;
#81 = CARTESIAN_POINT ( 'NONE',  ( 1.187103655206665341E-13, 3.199999999999996181, 34.00000000000000000 ) ) ;
#82 = AXIS2_PLACEMENT_3D ( 'NONE', #161, #2, #214 ) ;
#83 = PRODUCT_DEFINITION_SHAPE ( 'NONE', 'NONE',  #171 ) ;
#84 = FACE_OUTER_BOUND ( 'NONE', #223, .T. ) ;
#85 = CYLINDRICAL_SURFACE ( 'NONE', #166, 3.500000000000000000 ) ;
#86 = CARTESIAN_POINT ( 'NONE',  ( 2.793185071074506684E-14, -9.797174393178825657E-16, 8.000000000000000000 ) ) ;
#87 = AXIS2_PLACEMENT_3D ( 'NONE', #229, #144, #157 ) ;
#88 =( LENGTH_UNIT ( ) NAMED_UNIT ( * ) SI_UNIT ( .MILLI., .METRE. ) );
#89 = DIRECTION ( 'NONE',  ( 1.000000000000000000, 0.000000000000000000, 0.000000000000000000 ) ) ;
#90 = COORDINATED_UNIVERSAL_TIME_OFFSET ( 1, 0, .AHEAD. ) ;
#91 = DATE_AND_TIME ( #176, #137 ) ;
#92 = CIRCLE ( 'NONE', #75, 3.500000000000000000 ) ;
#93 = DIRECTION ( 'NONE',  ( 4.275831445896958607E-31, 1.000000000000000000, 1.224646799147353207E-16 ) ) ;
#94 = CALENDAR_DATE ( 2024, 12, 7 ) ;
#95 = EDGE_LOOP ( 'NONE', ( #6 ) ) ;
#96 = APPROVAL_STATUS ( 'not_yet_approved' ) ;
#97 = PLANE ( 'NONE',  #158 ) ;
#98 = CARTESIAN_POINT ( 'NONE',  ( -7.482705030319677999E-31, 2.624579619658250814E-32, -2.143131898507868297E-16 ) ) ;
#99 = CYLINDRICAL_SURFACE ( 'NONE', #124, 3.999999999999996447 ) ;
#100 = CC_DESIGN_PERSON_AND_ORGANIZATION_ASSIGNMENT ( #232, #220, ( #183 ) ) ;
#101 = PLANE ( 'NONE',  #45 ) ;
#102 = FACE_OUTER_BOUND ( 'NONE', #152, .T. ) ;
#103 = APPROVAL ( #96, 'UNSPECIFIED' ) ;
#104 = DIRECTION ( 'NONE',  ( 4.275831445896958607E-31, 1.000000000000000000, 1.224646799147353207E-16 ) ) ;
#105 = DIRECTION ( 'NONE',  ( -4.275831445896958607E-31, -1.000000000000000000, -1.224646799147353207E-16 ) ) ;
#106 = CC_DESIGN_DATE_AND_TIME_ASSIGNMENT ( #91, #236, ( #219 ) ) ;
#107 = CARTESIAN_POINT ( 'NONE',  ( 0.000000000000000000, 0.000000000000000000, 0.000000000000000000 ) ) ;
#108 = ADVANCED_FACE ( 'NONE', ( #142, #122 ), #85, .T. ) ;
#109 = FACE_BOUND ( 'NONE', #165, .T. ) ;
#110 = PERSON_AND_ORGANIZATION ( #177, #127 ) ;
#111 = PERSON_AND_ORGANIZATION_ROLE ( 'creator' ) ;
#112 = AXIS2_PLACEMENT_3D ( 'NONE', #213, #189, #104 ) ;
#113 = APPLICATION_CONTEXT ( 'configuration controlled 3d designs of mechanical parts and assemblies' ) ;
#114 = COORDINATED_UNIVERSAL_TIME_OFFSET ( 1, 0, .AHEAD. ) ;
#115 = ORIENTED_EDGE ( 'NONE', *, *, #54, .F. ) ;
#116 = EDGE_LOOP ( 'NONE', ( #71 ) ) ;
#117 = EDGE_CURVE ( 'NONE', #68, #68, #66, .T. ) ;
#118 = CC_DESIGN_PERSON_AND_ORGANIZATION_ASSIGNMENT ( #216, #27, ( #219 ) ) ;
#119 = DIRECTION ( 'NONE',  ( -3.491481338843133355E-15, 1.224646799147353207E-16, -1.000000000000000000 ) ) ;
#120 = CARTESIAN_POINT ( 'NONE',  ( 2.793185071074506684E-14, -9.797174393178825657E-16, 8.000000000000000000 ) ) ;
#121 = PLANE ( 'NONE',  #112 ) ;
#122 = FACE_OUTER_BOUND ( 'NONE', #38, .T. ) ;
#123 = PLANE ( 'NONE',  #153 ) ;
#124 = AXIS2_PLACEMENT_3D ( 'NONE', #170, #43, #160 ) ;
#125 = APPROVAL_ROLE ( '' ) ;
#126 = CARTESIAN_POINT ( 'NONE',  ( 0.000000000000000000, 3.500000000000000000, 0.000000000000000000 ) ) ;
#127 = ORGANIZATION ( 'UNSPECIFIED', 'UNSPECIFIED', '' ) ;
#128 = FACE_OUTER_BOUND ( 'NONE', #205, .T. ) ;
#129 = PERSON_AND_ORGANIZATION ( #177, #127 ) ;
#130 = FACE_OUTER_BOUND ( 'NONE', #77, .T. ) ;
#131 = DATE_AND_TIME ( #151, #234 ) ;
#132 = APPROVAL_DATE_TIME ( #185, #103 ) ;
#133 = APPROVAL_PERSON_ORGANIZATION ( #76, #103, #206 ) ;
#134 = MANIFOLD_SOLID_BREP ( 'Corps-Déplacer/Copier1[1]', #28 ) ;
#135 = APPROVAL ( #198, 'UNSPECIFIED' ) ;
#136 = EDGE_LOOP ( 'NONE', ( #168 ) ) ;
#137 = LOCAL_TIME ( 11, 23, 11.00000000000000000, #65 ) ;
#138 = CARTESIAN_POINT ( 'NONE',  ( 0.000000000000000000, 0.000000000000000000, 0.000000000000000000 ) ) ;
#139 = FACE_OUTER_BOUND ( 'NONE', #32, .T. ) ;
#140 = LOCAL_TIME ( 11, 23, 11.00000000000000000, #193 ) ;
#141 = CLOSED_SHELL ( 'NONE', ( #10, #108, #180 ) ) ;
#142 = FACE_OUTER_BOUND ( 'NONE', #37, .T. ) ;
#143 = DIRECTION ( 'NONE',  ( 0.000000000000000000, -1.000000000000000000, 0.000000000000000000 ) ) ;
#144 = DIRECTION ( 'NONE',  ( -3.491481338843133355E-15, 1.224646799147353207E-16, -1.000000000000000000 ) ) ;
#145 = ADVANCED_FACE ( 'NONE', ( #1, #63 ), #235, .T. ) ;
#146 = LOCAL_TIME ( 11, 23, 11.00000000000000000, #182 ) ;
#147 = CARTESIAN_POINT ( 'NONE',  ( 2.793185071074506684E-14, 3.499999999999999112, 8.000000000000000000 ) ) ;
#148 = UNCERTAINTY_MEASURE_WITH_UNIT (LENGTH_MEASURE( 1.000000000000000082E-05 ), #88, 'distance_accuracy_value', 'NONE');
#149 = DATE_TIME_ROLE ( 'creation_date' ) ;
#150 = APPLICATION_PROTOCOL_DEFINITION ( 'international standard', 'config_control_design', 1994, #113 ) ;
#151 = CALENDAR_DATE ( 2024, 12, 7 ) ;
#152 = EDGE_LOOP ( 'NONE', ( #186 ) ) ;
#153 = AXIS2_PLACEMENT_3D ( 'NONE', #243, #192, #209 ) ;
#154 = CIRCLE ( 'NONE', #191, 3.200000000000000622 ) ;
#155 = DIRECTION ( 'NONE',  ( 0.000000000000000000, 1.000000000000000000, 0.000000000000000000 ) ) ;
#156 = CARTESIAN_POINT ( 'NONE',  ( 0.000000000000000000, 0.000000000000000000, 0.000000000000000000 ) ) ;
#157 = DIRECTION ( 'NONE',  ( 0.000000000000000000, 1.000000000000000000, 0.000000000000000000 ) ) ;
#158 = AXIS2_PLACEMENT_3D ( 'NONE', #98, #238, #93 ) ;
#159 = CC_DESIGN_PERSON_AND_ORGANIZATION_ASSIGNMENT ( #25, #111, ( #171 ) ) ;
#160 = DIRECTION ( 'NONE',  ( 4.275831445896957731E-31, 1.000000000000000000, 1.224646799147353207E-16 ) ) ;
#161 = CARTESIAN_POINT ( 'NONE',  ( 2.618611004132350143E-13, -9.184850993605148733E-15, 75.00000000000000000 ) ) ;
#162 = PERSON_AND_ORGANIZATION ( #177, #127 ) ;
#163 =( NAMED_UNIT ( * ) SI_UNIT ( $, .STERADIAN. ) SOLID_ANGLE_UNIT ( ) );
#164 = CALENDAR_DATE ( 2024, 12, 7 ) ;
#165 = EDGE_LOOP ( 'NONE', ( #115 ) ) ;
#166 = AXIS2_PLACEMENT_3D ( 'NONE', #156, #210, #19 ) ;
#167 = CARTESIAN_POINT ( 'NONE',  ( 1.215035505917410660E-13, -4.261770861032789782E-15, 34.80000000000000426 ) ) ;
#168 = ORIENTED_EDGE ( 'NONE', *, *, #237, .F. ) ;
#169 = DIRECTION ( 'NONE',  ( 3.491481338843133355E-15, -1.224646799147353207E-16, 1.000000000000000000 ) ) ;
#170 = CARTESIAN_POINT ( 'NONE',  ( 0.000000000000000000, 0.000000000000000000, 0.000000000000000000 ) ) ;
#171 = PRODUCT_DEFINITION ( 'UNKNOWN', '', #34, #24 ) ;
#172 = DIRECTION ( 'NONE',  ( -3.491481338843133355E-15, 1.224646799147353207E-16, -1.000000000000000000 ) ) ;
#173 = AXIS2_PLACEMENT_3D ( 'NONE', #138, #241, #40 ) ;
#174 = DIRECTION ( 'NONE',  ( 0.000000000000000000, 1.000000000000000000, 0.000000000000000000 ) ) ;
#175 = FACE_OUTER_BOUND ( 'NONE', #52, .T. ) ;
#176 = CALENDAR_DATE ( 2024, 12, 7 ) ;
#177 = PERSON ( 'UNSPECIFIED', 'UNSPECIFIED', 'UNSPECIFIED', ('UNSPECIFIED'), ('UNSPECIFIED'), ('UNSPECIFIED') ) ;
#178 = APPROVAL_ROLE ( '' ) ;
#179 = ORIENTED_EDGE ( 'NONE', *, *, #80, .T. ) ;
#180 = ADVANCED_FACE ( 'NONE', ( #16 ), #123, .T. ) ;
#181 = AXIS2_PLACEMENT_3D ( 'NONE', #120, #119, #187 ) ;
#182 = COORDINATED_UNIVERSAL_TIME_OFFSET ( 1, 0, .AHEAD. ) ;
#183 = PRODUCT ( '976394', '976394', '', ( #31 ) ) ;
#184 = ORIENTED_EDGE ( 'NONE', *, *, #237, .T. ) ;
#185 = DATE_AND_TIME ( #94, #15 ) ;
#186 = ORIENTED_EDGE ( 'NONE', *, *, #12, .F. ) ;
#187 = DIRECTION ( 'NONE',  ( 0.000000000000000000, 1.000000000000000000, 0.000000000000000000 ) ) ;
#188 = CARTESIAN_POINT ( 'NONE',  ( 1.215035505917410660E-13, 3.999999999999990674, 34.80000000000000426 ) ) ;
#189 = DIRECTION ( 'NONE',  ( -3.491481338843133355E-15, 1.224646799147353207E-16, -1.000000000000000000 ) ) ;
#190 = DIRECTION ( 'NONE',  ( -3.491481338843133355E-15, 1.224646799147353207E-16, -1.000000000000000000 ) ) ;
#191 = AXIS2_PLACEMENT_3D ( 'NONE', #64, #42, #225 ) ;
#192 = DIRECTION ( 'NONE',  ( 3.491481338843133355E-15, -1.224646799147353207E-16, 1.000000000000000000 ) ) ;
#193 = COORDINATED_UNIVERSAL_TIME_OFFSET ( 1, 0, .AHEAD. ) ;
#194 = PERSON_AND_ORGANIZATION_ROLE ( 'design_supplier' ) ;
#195 = CIRCLE ( 'NONE', #87, 3.499999999999996891 ) ;
#196 = CC_DESIGN_APPROVAL ( #14, ( #34 ) ) ;
#197 = VERTEX_POINT ( 'NONE', #147 ) ;
#198 = APPROVAL_STATUS ( 'not_yet_approved' ) ;
#199 = ADVANCED_FACE ( 'NONE', ( #84 ), #101, .F. ) ;
#200 = ORIENTED_EDGE ( 'NONE', *, *, #74, .F. ) ;
#201 = AXIS2_PLACEMENT_3D ( 'NONE', #107, #69, #89 ) ;
#202 = APPLICATION_CONTEXT ( 'configuration controlled 3d designs of mechanical parts and assemblies' ) ;
#203 = SHAPE_DEFINITION_REPRESENTATION ( #83, #21 ) ;
#204 = APPROVAL_PERSON_ORGANIZATION ( #110, #14, #178 ) ;
#205 = EDGE_LOOP ( 'NONE', ( #207 ) ) ;
#206 = APPROVAL_ROLE ( '' ) ;
#207 = ORIENTED_EDGE ( 'NONE', *, *, #12, .T. ) ;
#208 = ADVANCED_FACE ( 'NONE', ( #224, #175 ), #59, .T. ) ;
#209 = DIRECTION ( 'NONE',  ( -4.275831445896958607E-31, -1.000000000000000000, -1.224646799147353207E-16 ) ) ;
#210 = DIRECTION ( 'NONE',  ( -3.491481338843133355E-15, 1.224646799147353207E-16, -1.000000000000000000 ) ) ;
#211 = AXIS2_PLACEMENT_3D ( 'NONE', #86, #172, #174 ) ;
#212 = VERTEX_POINT ( 'NONE', #7 ) ;
#213 = CARTESIAN_POINT ( 'NONE',  ( 2.618611004132350143E-13, 2.624579619658234940E-32, 75.00000000000000000 ) ) ;
#214 = DIRECTION ( 'NONE',  ( 0.000000000000000000, 1.000000000000000000, 0.000000000000000000 ) ) ;
#215 =( GEOMETRIC_REPRESENTATION_CONTEXT ( 3 ) GLOBAL_UNCERTAINTY_ASSIGNED_CONTEXT ( ( #148 ) ) GLOBAL_UNIT_ASSIGNED_CONTEXT ( ( #88, #29, #163 ) ) REPRESENTATION_CONTEXT ( 'NONE', 'WORKASPACE' ) );
#216 = PERSON_AND_ORGANIZATION ( #177, #127 ) ;
#217 = PERSON_AND_ORGANIZATION_ROLE ( 'creator' ) ;
#218 = VERTEX_POINT ( 'NONE', #126 ) ;
#219 = SECURITY_CLASSIFICATION ( '', '', #230 ) ;
#220 = PERSON_AND_ORGANIZATION_ROLE ( 'design_owner' ) ;
#221 = DIRECTION ( 'NONE',  ( 3.491481338843133355E-15, -1.224646799147353207E-16, 1.000000000000000000 ) ) ;
#222 = CC_DESIGN_PERSON_AND_ORGANIZATION_ASSIGNMENT ( #33, #217, ( #34 ) ) ;
#223 = EDGE_LOOP ( 'NONE', ( #9 ) ) ;
#224 = FACE_OUTER_BOUND ( 'NONE', #95, .T. ) ;
#225 = DIRECTION ( 'NONE',  ( 0.000000000000000000, 1.000000000000000000, 0.000000000000000000 ) ) ;
#226 = CARTESIAN_POINT ( 'NONE',  ( 2.601153597438134539E-13, 3.999999999999988010, 74.50000000000001421 ) ) ;
#227 = AXIS2_PLACEMENT_3D ( 'NONE', #167, #240, #155 ) ;
#228 = FACE_OUTER_BOUND ( 'NONE', #13, .T. ) ;
#229 = CARTESIAN_POINT ( 'NONE',  ( 2.618611004132350143E-13, -9.184850993605148733E-15, 75.00000000000000000 ) ) ;
#230 = SECURITY_CLASSIFICATION_LEVEL ( 'unclassified' ) ;
#231 = CC_DESIGN_APPROVAL ( #135, ( #171 ) ) ;
#232 = PERSON_AND_ORGANIZATION ( #177, #127 ) ;
#233 = DATE_AND_TIME ( #53, #146 ) ;
#234 = LOCAL_TIME ( 11, 23, 11.00000000000000000, #90 ) ;
#235 = CONICAL_SURFACE ( 'NONE', #82, 3.499999999999996891, 0.7853981633974621568 ) ;
#236 = DATE_TIME_ROLE ( 'classification_date' ) ;
#237 = EDGE_CURVE ( 'NONE', #197, #197, #61, .T. ) ;
#238 = DIRECTION ( 'NONE',  ( -3.491481338843133355E-15, 1.224646799147353207E-16, -1.000000000000000000 ) ) ;
#239 = APPROVAL_PERSON_ORGANIZATION ( #129, #135, #125 ) ;
#240 = DIRECTION ( 'NONE',  ( -3.491481338843133355E-15, 1.224646799147353207E-16, -1.000000000000000000 ) ) ;
#241 = DIRECTION ( 'NONE',  ( -3.491481338843133355E-15, 1.224646799147353207E-16, -1.000000000000000000 ) ) ;
#242 = DIRECTION ( 'NONE',  ( 4.275831445896958607E-31, 1.000000000000000000, 1.224646799147353207E-16 ) ) ;
#243 = CARTESIAN_POINT ( 'NONE',  ( 2.793185071074506684E-14, 2.624579619658249172E-32, 8.000000000000000000 ) ) ;
ENDSEC;
END-ISO-10303-21;
