ISO-10303-21;
HEADER;
FILE_DESCRIPTION (( 'STEP AP203' ),
    '1' );
FILE_NAME ('976393.step',
    '2024-07-12T09:23:11',
    ( '' ),
    ( '' ),
    'SwSTEP 2.0',
    'SolidWorks 2022',
    '' );
FILE_SCHEMA (( 'CONFIG_CONTROL_DESIGN' ));
ENDSEC;

DATA;
#1 = CC_DESIGN_SECURITY_CLASSIFICATION ( #190, ( #82 ) ) ;
#2 = CARTESIAN_POINT ( 'NONE',  ( 1.745740669421566678E-13, -6.123233995736766085E-15, 50.00000000000000000 ) ) ;
#3 = CC_DESIGN_DATE_AND_TIME_ASSIGNMENT ( #30, #75, ( #190 ) ) ;
#4 = CARTESIAN_POINT ( 'NONE',  ( 1.745740669421566678E-13, 2.749999999999993783, 50.00000000000000000 ) ) ;
#5 = DIRECTION ( 'NONE',  ( 4.275831445896959482E-31, 1.000000000000000000, 1.224646799147353207E-16 ) ) ;
#6 = VERTEX_POINT ( 'NONE', #197 ) ;
#7 = DIRECTION ( 'NONE',  ( -3.491481338843133355E-15, 1.224646799147353207E-16, -1.000000000000000000 ) ) ;
#8 = EDGE_LOOP ( 'NONE', ( #19 ) ) ;
#9 = APPROVAL_ROLE ( '' ) ;
#10 = FACE_OUTER_BOUND ( 'NONE', #200, .T. ) ;
#11 = FACE_OUTER_BOUND ( 'NONE', #183, .T. ) ;
#12 = DATE_AND_TIME ( #47, #154 ) ;
#13 = CIRCLE ( 'NONE', #178, 2.999999999999993783 ) ;
#14 = PERSON_AND_ORGANIZATION ( #172, #80 ) ;
#15 = UNCERTAINTY_MEASURE_WITH_UNIT (LENGTH_MEASURE( 1.000000000000000082E-05 ), #236, 'distance_accuracy_value', 'NONE');
#16 = DIRECTION ( 'NONE',  ( 0.000000000000000000, 1.000000000000000000, 0.000000000000000000 ) ) ;
#17 = PLANE ( 'NONE',  #68 ) ;
#18 = FACE_BOUND ( 'NONE', #21, .T. ) ;
#19 = ORIENTED_EDGE ( 'NONE', *, *, #36, .T. ) ;
#20 = PERSON_AND_ORGANIZATION ( #172, #80 ) ;
#21 = EDGE_LOOP ( 'NONE', ( #66 ) ) ;
#22 = PERSON_AND_ORGANIZATION_ROLE ( 'creator' ) ;
#23 = CARTESIAN_POINT ( 'NONE',  ( 2.793185071074506684E-14, -9.797174393178825657E-16, 8.000000000000000000 ) ) ;
#24 = AXIS2_PLACEMENT_3D ( 'NONE', #119, #230, #16 ) ;
#25 = DIRECTION ( 'NONE',  ( 0.000000000000000000, 1.000000000000000000, 0.000000000000000000 ) ) ;
#26 =( NAMED_UNIT ( * ) PLANE_ANGLE_UNIT ( ) SI_UNIT ( $, .RADIAN. ) );
#27 = EDGE_CURVE ( 'NONE', #169, #169, #235, .T. ) ;
#28 = ORIENTED_EDGE ( 'NONE', *, *, #117, .F. ) ;
#29 = CARTESIAN_POINT ( 'NONE',  ( 0.000000000000000000, 0.000000000000000000, 0.000000000000000000 ) ) ;
#30 = DATE_AND_TIME ( #97, #58 ) ;
#31 = DESIGN_CONTEXT ( 'detailed design', #138, 'design' ) ;
#32 = FACE_OUTER_BOUND ( 'NONE', #102, .T. ) ;
#33 = SECURITY_CLASSIFICATION_LEVEL ( 'unclassified' ) ;
#34 = PERSON_AND_ORGANIZATION ( #172, #80 ) ;
#35 = ADVANCED_FACE ( 'NONE', ( #233 ), #142, .F. ) ;
#36 = EDGE_CURVE ( 'NONE', #62, #62, #87, .T. ) ;
#37 = CONICAL_SURFACE ( 'NONE', #134, 2.750000000000000000, 0.7853981633974361776 ) ;
#38 = CC_DESIGN_APPROVAL ( #161, ( #82 ) ) ;
#39 = DIRECTION ( 'NONE',  ( -3.491481338843133355E-15, 1.224646799147353207E-16, -1.000000000000000000 ) ) ;
#40 = PERSON_AND_ORGANIZATION_ROLE ( 'design_owner' ) ;
#41 = ORIENTED_EDGE ( 'NONE', *, *, #243, .T. ) ;
#42 = DIRECTION ( 'NONE',  ( -3.491481338843133355E-15, 1.224646799147353207E-16, -1.000000000000000000 ) ) ;
#43 = CLOSED_SHELL ( 'NONE', ( #226, #96, #145, #129, #64, #35 ) ) ;
#44 = DIRECTION ( 'NONE',  ( 4.275831445896958607E-31, 1.000000000000000000, 1.224646799147353207E-16 ) ) ;
#45 = CC_DESIGN_PERSON_AND_ORGANIZATION_ASSIGNMENT ( #208, #210, ( #190 ) ) ;
#46 = COORDINATED_UNIVERSAL_TIME_OFFSET ( 1, 0, .AHEAD. ) ;
#47 = CALENDAR_DATE ( 2024, 12, 7 ) ;
#48 = FACE_OUTER_BOUND ( 'NONE', #8, .T. ) ;
#49 = CALENDAR_DATE ( 2024, 12, 7 ) ;
#50 = PLANE ( 'NONE',  #160 ) ;
#51 = MANIFOLD_SOLID_BREP ( 'Corps-Déplacer/Copier1[2]', #231 ) ;
#52 = MANIFOLD_SOLID_BREP ( 'Corps-Déplacer/Copier1[1]', #43 ) ;
#53 = PERSON_AND_ORGANIZATION ( #172, #80 ) ;
#54 = AXIS2_PLACEMENT_3D ( 'NONE', #150, #186, #44 ) ;
#55 = APPROVAL_PERSON_ORGANIZATION ( #14, #161, #100 ) ;
#56 = CARTESIAN_POINT ( 'NONE',  ( 3.474023932148917752E-13, -1.218523565151616460E-14, 99.50000000000000000 ) ) ;
#57 = AXIS2_PLACEMENT_3D ( 'NONE', #203, #143, #5 ) ;
#58 = LOCAL_TIME ( 11, 23, 11.00000000000000000, #77 ) ;
#59 = EDGE_LOOP ( 'NONE', ( #107 ) ) ;
#60 = DIRECTION ( 'NONE',  ( 3.491481338843133355E-15, -1.224646799147353207E-16, 1.000000000000000000 ) ) ;
#61 = FACE_OUTER_BOUND ( 'NONE', #86, .T. ) ;
#62 = VERTEX_POINT ( 'NONE', #187 ) ;
#63 = CARTESIAN_POINT ( 'NONE',  ( 1.745740669421566678E-13, -6.123233995736766085E-15, 50.00000000000000000 ) ) ;
#64 = ADVANCED_FACE ( 'NONE', ( #10, #141 ), #140, .T. ) ;
#65 = CARTESIAN_POINT ( 'NONE',  ( 3.491481338843133355E-13, -1.224646799147353217E-14, 100.0000000000000000 ) ) ;
#66 = ORIENTED_EDGE ( 'NONE', *, *, #84, .F. ) ;
#67 = CC_DESIGN_PERSON_AND_ORGANIZATION_ASSIGNMENT ( #53, #130, ( #82 ) ) ;
#68 = AXIS2_PLACEMENT_3D ( 'NONE', #139, #179, #177 ) ;
#69 = LOCAL_TIME ( 11, 23, 11.00000000000000000, #167 ) ;
#70 = DIRECTION ( 'NONE',  ( 0.000000000000000000, 1.000000000000000000, 0.000000000000000000 ) ) ;
#71 = PERSON_AND_ORGANIZATION ( #172, #80 ) ;
#72 = DIRECTION ( 'NONE',  ( -3.491481338843133355E-15, 1.224646799147353207E-16, -1.000000000000000000 ) ) ;
#73 = CARTESIAN_POINT ( 'NONE',  ( -6.413747168845438786E-31, 2.249639673992786412E-32, -1.836970198721029934E-16 ) ) ;
#74 = CIRCLE ( 'NONE', #123, 2.500000000000003109 ) ;
#75 = DATE_TIME_ROLE ( 'classification_date' ) ;
#76 = LOCAL_TIME ( 11, 23, 11.00000000000000000, #46 ) ;
#77 = COORDINATED_UNIVERSAL_TIME_OFFSET ( 1, 0, .AHEAD. ) ;
#78 = ADVANCED_FACE ( 'NONE', ( #48, #90 ), #94, .T. ) ;
#79 = DATE_AND_TIME ( #201, #69 ) ;
#80 = ORGANIZATION ( 'UNSPECIFIED', 'UNSPECIFIED', '' ) ;
#81 = CIRCLE ( 'NONE', #24, 2.749999999999997335 ) ;
#82 = PRODUCT_DEFINITION_FORMATION_WITH_SPECIFIED_SOURCE ( 'ANY', '', #166, .NOT_KNOWN. ) ;
#83 = ORIENTED_EDGE ( 'NONE', *, *, #117, .T. ) ;
#84 = EDGE_CURVE ( 'NONE', #128, #128, #174, .T. ) ;
#85 = PLANE ( 'NONE',  #153 ) ;
#86 = EDGE_LOOP ( 'NONE', ( #216 ) ) ;
#87 = CIRCLE ( 'NONE', #136, 3.000000000000000000 ) ;
#88 = PERSON_AND_ORGANIZATION ( #172, #80 ) ;
#89 = PRODUCT_DEFINITION_SHAPE ( 'NONE', 'NONE',  #121 ) ;
#90 = FACE_OUTER_BOUND ( 'NONE', #163, .T. ) ;
#91 = CARTESIAN_POINT ( 'NONE',  ( 3.474023932148917752E-13, 2.999999999999991118, 99.50000000000000000 ) ) ;
#92 = CC_DESIGN_PERSON_AND_ORGANIZATION_ASSIGNMENT ( #71, #22, ( #121 ) ) ;
#93 = CARTESIAN_POINT ( 'NONE',  ( 0.000000000000000000, 0.000000000000000000, 0.000000000000000000 ) ) ;
#94 = CYLINDRICAL_SURFACE ( 'NONE', #194, 3.000000000000000000 ) ;
#95 = EDGE_LOOP ( 'NONE', ( #83 ) ) ;
#96 = ADVANCED_FACE ( 'NONE', ( #61, #131 ), #184, .T. ) ;
#97 = CALENDAR_DATE ( 2024, 12, 7 ) ;
#98 = APPROVAL_DATE_TIME ( #133, #147 ) ;
#99 = CC_DESIGN_PERSON_AND_ORGANIZATION_ASSIGNMENT ( #34, #151, ( #82 ) ) ;
#100 = APPROVAL_ROLE ( '' ) ;
#101 = CC_DESIGN_APPROVAL ( #147, ( #190 ) ) ;
#102 = EDGE_LOOP ( 'NONE', ( #28 ) ) ;
#103 = FACE_OUTER_BOUND ( 'NONE', #158, .T. ) ;
#104 = AXIS2_PLACEMENT_3D ( 'NONE', #109, #72, #170 ) ;
#105 = CC_DESIGN_APPROVAL ( #205, ( #121 ) ) ;
#106 = VERTEX_POINT ( 'NONE', #125 ) ;
#107 = ORIENTED_EDGE ( 'NONE', *, *, #152, .F. ) ;
#108 = DIRECTION ( 'NONE',  ( 1.000000000000000000, 0.000000000000000000, 0.000000000000000000 ) ) ;
#109 = CARTESIAN_POINT ( 'NONE',  ( 3.491481338843133355E-13, -1.224646799147353217E-14, 100.0000000000000000 ) ) ;
#110 = MECHANICAL_CONTEXT ( 'NONE', #115, 'mechanical' ) ;
#111 = DIRECTION ( 'NONE',  ( -3.491481338843133355E-15, 1.224646799147353207E-16, -1.000000000000000000 ) ) ;
#112 = DIRECTION ( 'NONE',  ( 0.000000000000000000, 0.000000000000000000, 1.000000000000000000 ) ) ;
#113 = FACE_OUTER_BOUND ( 'NONE', #189, .T. ) ;
#114 = SHAPE_DEFINITION_REPRESENTATION ( #89, #204 ) ;
#115 = APPLICATION_CONTEXT ( 'configuration controlled 3d designs of mechanical parts and assemblies' ) ;
#116 = DIRECTION ( 'NONE',  ( 4.275831445896958607E-31, 1.000000000000000000, 1.224646799147353454E-16 ) ) ;
#117 = EDGE_CURVE ( 'NONE', #106, #106, #13, .T. ) ;
#118 = AXIS2_PLACEMENT_3D ( 'NONE', #234, #221, #209 ) ;
#119 = CARTESIAN_POINT ( 'NONE',  ( 2.793185071074506684E-14, -9.797174393178825657E-16, 8.000000000000000000 ) ) ;
#120 = EDGE_LOOP ( 'NONE', ( #41 ) ) ;
#121 = PRODUCT_DEFINITION ( 'UNKNOWN', '', #82, #31 ) ;
#122 = DIRECTION ( 'NONE',  ( 3.491481338843133355E-15, -1.224646799147353207E-16, 1.000000000000000000 ) ) ;
#123 = AXIS2_PLACEMENT_3D ( 'NONE', #65, #149, #185 ) ;
#124 = ORIENTED_EDGE ( 'NONE', *, *, #36, .F. ) ;
#125 = CARTESIAN_POINT ( 'NONE',  ( 1.754469372768674732E-13, 2.999999999999988010, 50.25000000000000000 ) ) ;
#126 = APPROVAL_STATUS ( 'not_yet_approved' ) ;
#127 = CYLINDRICAL_SURFACE ( 'NONE', #196, 2.999999999999998224 ) ;
#128 = VERTEX_POINT ( 'NONE', #4 ) ;
#129 = ADVANCED_FACE ( 'NONE', ( #32, #113 ), #127, .T. ) ;
#130 = PERSON_AND_ORGANIZATION_ROLE ( 'creator' ) ;
#131 = FACE_OUTER_BOUND ( 'NONE', #59, .T. ) ;
#132 = APPROVAL_STATUS ( 'not_yet_approved' ) ;
#133 = DATE_AND_TIME ( #49, #220 ) ;
#134 = AXIS2_PLACEMENT_3D ( 'NONE', #2, #122, #159 ) ;
#135 = ORIENTED_EDGE ( 'NONE', *, *, #238, .T. ) ;
#136 = AXIS2_PLACEMENT_3D ( 'NONE', #23, #111, #207 ) ;
#137 = ADVANCED_FACE ( 'NONE', ( #11 ), #50, .T. ) ;
#138 = APPLICATION_CONTEXT ( 'configuration controlled 3d designs of mechanical parts and assemblies' ) ;
#139 = CARTESIAN_POINT ( 'NONE',  ( 2.793185071074506684E-14, 2.249639673992785317E-32, 8.000000000000000000 ) ) ;
#140 = CONICAL_SURFACE ( 'NONE', #104, 2.500000000000003109, 0.7853981633974479459 ) ;
#141 = FACE_BOUND ( 'NONE', #120, .T. ) ;
#142 = PLANE ( 'NONE',  #54 ) ;
#143 = DIRECTION ( 'NONE',  ( -3.491481338843133355E-15, 1.224646799147353207E-16, -1.000000000000000000 ) ) ;
#144 = APPROVAL_PERSON_ORGANIZATION ( #88, #205, #9 ) ;
#145 = ADVANCED_FACE ( 'NONE', ( #193, #18 ), #37, .T. ) ;
#146 = CARTESIAN_POINT ( 'NONE',  ( 0.000000000000000000, 3.000000000000000000, 0.000000000000000000 ) ) ;
#147 = APPROVAL ( #242, 'UNSPECIFIED' ) ;
#148 = DIRECTION ( 'NONE',  ( 4.275831445896959482E-31, 1.000000000000000000, 1.224646799147353207E-16 ) ) ;
#149 = DIRECTION ( 'NONE',  ( -3.491481338843133355E-15, 1.224646799147353207E-16, -1.000000000000000000 ) ) ;
#150 = CARTESIAN_POINT ( 'NONE',  ( 3.491481338843133355E-13, 1.874699728327306136E-32, 100.0000000000000000 ) ) ;
#151 = PERSON_AND_ORGANIZATION_ROLE ( 'design_supplier' ) ;
#152 = EDGE_CURVE ( 'NONE', #6, #6, #81, .T. ) ;
#153 = AXIS2_PLACEMENT_3D ( 'NONE', #162, #60, #215 ) ;
#154 = LOCAL_TIME ( 11, 23, 11.00000000000000000, #240 ) ;
#155 = APPROVAL_ROLE ( '' ) ;
#156 = DIRECTION ( 'NONE',  ( 4.275831445896958607E-31, 1.000000000000000000, 1.224646799147353207E-16 ) ) ;
#157 = APPROVAL_DATE_TIME ( #12, #161 ) ;
#158 = EDGE_LOOP ( 'NONE', ( #198 ) ) ;
#159 = DIRECTION ( 'NONE',  ( 0.000000000000000000, -1.000000000000000000, 0.000000000000000000 ) ) ;
#160 = AXIS2_PLACEMENT_3D ( 'NONE', #73, #176, #156 ) ;
#161 = APPROVAL ( #132, 'UNSPECIFIED' ) ;
#162 = CARTESIAN_POINT ( 'NONE',  ( 2.793185071074506684E-14, 2.062169701160050926E-32, 8.000000000000000000 ) ) ;
#163 = EDGE_LOOP ( 'NONE', ( #181 ) ) ;
#164 = APPLICATION_PROTOCOL_DEFINITION ( 'international standard', 'config_control_design', 1994, #115 ) ;
#165 = ORIENTED_EDGE ( 'NONE', *, *, #27, .T. ) ;
#166 = PRODUCT ( '976393', '976393', '', ( #110 ) ) ;
#167 = COORDINATED_UNIVERSAL_TIME_OFFSET ( 1, 0, .AHEAD. ) ;
#168 = CARTESIAN_POINT ( 'NONE',  ( 0.000000000000000000, 0.000000000000000000, 0.000000000000000000 ) ) ;
#169 = VERTEX_POINT ( 'NONE', #146 ) ;
#170 = DIRECTION ( 'NONE',  ( 0.000000000000000000, 1.000000000000000000, 0.000000000000000000 ) ) ;
#171 = CARTESIAN_POINT ( 'NONE',  ( 3.491481338843133355E-13, 2.499999999999991118, 100.0000000000000000 ) ) ;
#172 = PERSON ( 'UNSPECIFIED', 'UNSPECIFIED', 'UNSPECIFIED', ('UNSPECIFIED'), ('UNSPECIFIED'), ('UNSPECIFIED') ) ;
#173 = ORIENTED_EDGE ( 'NONE', *, *, #238, .F. ) ;
#174 = CIRCLE ( 'NONE', #225, 2.750000000000000000 ) ;
#175 = PERSON_AND_ORGANIZATION ( #172, #80 ) ;
#176 = DIRECTION ( 'NONE',  ( -3.491481338843133355E-15, 1.224646799147353207E-16, -1.000000000000000000 ) ) ;
#177 = DIRECTION ( 'NONE',  ( -4.275831445896958607E-31, -1.000000000000000000, -1.224646799147353207E-16 ) ) ;
#178 = AXIS2_PLACEMENT_3D ( 'NONE', #217, #7, #223 ) ;
#179 = DIRECTION ( 'NONE',  ( 3.491481338843133355E-15, -1.224646799147353207E-16, 1.000000000000000000 ) ) ;
#180 = VERTEX_POINT ( 'NONE', #91 ) ;
#181 = ORIENTED_EDGE ( 'NONE', *, *, #27, .F. ) ;
#182 = AXIS2_PLACEMENT_3D ( 'NONE', #56, #39, #70 ) ;
#183 = EDGE_LOOP ( 'NONE', ( #165 ) ) ;
#184 = CYLINDRICAL_SURFACE ( 'NONE', #118, 2.749999999999998668 ) ;
#185 = DIRECTION ( 'NONE',  ( 0.000000000000000000, 1.000000000000000000, 0.000000000000000000 ) ) ;
#186 = DIRECTION ( 'NONE',  ( -3.491481338843133355E-15, 1.224646799147353207E-16, -1.000000000000000000 ) ) ;
#187 = CARTESIAN_POINT ( 'NONE',  ( 2.793185071074506684E-14, 2.999999999999999112, 8.000000000000000000 ) ) ;
#188 = AXIS2_PLACEMENT_3D ( 'NONE', #29, #112, #108 ) ;
#189 = EDGE_LOOP ( 'NONE', ( #135 ) ) ;
#190 = SECURITY_CLASSIFICATION ( '', '', #33 ) ;
#191 = DIRECTION ( 'NONE',  ( -3.491481338843133355E-15, 1.224646799147353207E-16, -1.000000000000000000 ) ) ;
#192 = DIRECTION ( 'NONE',  ( -3.491481338843133355E-15, 1.224646799147353207E-16, -1.000000000000000000 ) ) ;
#193 = FACE_OUTER_BOUND ( 'NONE', #95, .T. ) ;
#194 = AXIS2_PLACEMENT_3D ( 'NONE', #168, #191, #148 ) ;
#195 = FACE_OUTER_BOUND ( 'NONE', #206, .T. ) ;
#196 = AXIS2_PLACEMENT_3D ( 'NONE', #93, #192, #116 ) ;
#197 = CARTESIAN_POINT ( 'NONE',  ( 2.793185071074506684E-14, 2.749999999999996447, 8.000000000000000000 ) ) ;
#198 = ORIENTED_EDGE ( 'NONE', *, *, #152, .T. ) ;
#199 = APPROVAL_DATE_TIME ( #239, #205 ) ;
#200 = EDGE_LOOP ( 'NONE', ( #173 ) ) ;
#201 = CALENDAR_DATE ( 2024, 12, 7 ) ;
#202 = APPROVAL_PERSON_ORGANIZATION ( #175, #147, #155 ) ;
#203 = CARTESIAN_POINT ( 'NONE',  ( -1.282749433769087757E-30, 4.499279347985572824E-32, -3.673940397442059868E-16 ) ) ;
#204 = ADVANCED_BREP_SHAPE_REPRESENTATION ( '976393', ( #52, #51, #188 ), #241 ) ;
#205 = APPROVAL ( #126, 'UNSPECIFIED' ) ;
#206 = EDGE_LOOP ( 'NONE', ( #124 ) ) ;
#207 = DIRECTION ( 'NONE',  ( 0.000000000000000000, 1.000000000000000000, 0.000000000000000000 ) ) ;
#208 = PERSON_AND_ORGANIZATION ( #172, #80 ) ;
#209 = DIRECTION ( 'NONE',  ( 4.275831445896958607E-31, 1.000000000000000000, 1.224646799147353207E-16 ) ) ;
#210 = PERSON_AND_ORGANIZATION_ROLE ( 'classification_officer' ) ;
#211 = DATE_TIME_ROLE ( 'creation_date' ) ;
#212 = PRODUCT_RELATED_PRODUCT_CATEGORY ( 'detail', '', ( #166 ) ) ;
#213 = ADVANCED_FACE ( 'NONE', ( #195 ), #17, .T. ) ;
#214 = ORIENTED_EDGE ( 'NONE', *, *, #243, .F. ) ;
#215 = DIRECTION ( 'NONE',  ( -4.275831445896958607E-31, -1.000000000000000000, -1.224646799147353207E-16 ) ) ;
#216 = ORIENTED_EDGE ( 'NONE', *, *, #84, .T. ) ;
#217 = CARTESIAN_POINT ( 'NONE',  ( 1.754469372768674732E-13, -6.153850165715449872E-15, 50.25000000000000000 ) ) ;
#218 = CC_DESIGN_PERSON_AND_ORGANIZATION_ASSIGNMENT ( #20, #40, ( #166 ) ) ;
#219 =( NAMED_UNIT ( * ) SI_UNIT ( $, .STERADIAN. ) SOLID_ANGLE_UNIT ( ) );
#220 = LOCAL_TIME ( 11, 23, 11.00000000000000000, #227 ) ;
#221 = DIRECTION ( 'NONE',  ( -3.491481338843133355E-15, 1.224646799147353207E-16, -1.000000000000000000 ) ) ;
#222 = VERTEX_POINT ( 'NONE', #171 ) ;
#223 = DIRECTION ( 'NONE',  ( 0.000000000000000000, 1.000000000000000000, 0.000000000000000000 ) ) ;
#224 = APPLICATION_PROTOCOL_DEFINITION ( 'international standard', 'config_control_design', 1994, #138 ) ;
#225 = AXIS2_PLACEMENT_3D ( 'NONE', #63, #42, #25 ) ;
#226 = ADVANCED_FACE ( 'NONE', ( #103 ), #85, .F. ) ;
#227 = COORDINATED_UNIVERSAL_TIME_OFFSET ( 1, 0, .AHEAD. ) ;
#228 = CC_DESIGN_DATE_AND_TIME_ASSIGNMENT ( #79, #211, ( #121 ) ) ;
#229 = CIRCLE ( 'NONE', #182, 3.000000000000003109 ) ;
#230 = DIRECTION ( 'NONE',  ( -3.491481338843133355E-15, 1.224646799147353207E-16, -1.000000000000000000 ) ) ;
#231 = CLOSED_SHELL ( 'NONE', ( #137, #78, #213 ) ) ;
#232 = CALENDAR_DATE ( 2024, 12, 7 ) ;
#233 = FACE_OUTER_BOUND ( 'NONE', #237, .T. ) ;
#234 = CARTESIAN_POINT ( 'NONE',  ( 0.000000000000000000, 0.000000000000000000, 0.000000000000000000 ) ) ;
#235 = CIRCLE ( 'NONE', #57, 3.000000000000000000 ) ;
#236 =( LENGTH_UNIT ( ) NAMED_UNIT ( * ) SI_UNIT ( .MILLI., .METRE. ) );
#237 = EDGE_LOOP ( 'NONE', ( #214 ) ) ;
#238 = EDGE_CURVE ( 'NONE', #180, #180, #229, .T. ) ;
#239 = DATE_AND_TIME ( #232, #76 ) ;
#240 = COORDINATED_UNIVERSAL_TIME_OFFSET ( 1, 0, .AHEAD. ) ;
#241 =( GEOMETRIC_REPRESENTATION_CONTEXT ( 3 ) GLOBAL_UNCERTAINTY_ASSIGNED_CONTEXT ( ( #15 ) ) GLOBAL_UNIT_ASSIGNED_CONTEXT ( ( #236, #26, #219 ) ) REPRESENTATION_CONTEXT ( 'NONE', 'WORKASPACE' ) );
#242 = APPROVAL_STATUS ( 'not_yet_approved' ) ;
#243 = EDGE_CURVE ( 'NONE', #222, #222, #74, .T. ) ;
ENDSEC;
END-ISO-10303-21;
