ISO-10303-21;
HEADER;
FILE_DESCRIPTION (( 'STEP AP203' ),
    '1' );
FILE_NAME ('976392.step',
    '2024-07-12T09:23:10',
    ( '' ),
    ( '' ),
    'SwSTEP 2.0',
    'SolidWorks 2022',
    '' );
FILE_SCHEMA (( 'CONFIG_CONTROL_DESIGN' ));
ENDSEC;

DATA;
#1 = EDGE_CURVE ( 'NONE', #144, #144, #152, .T. ) ;
#2 = PERSON_AND_ORGANIZATION ( #97, #74 ) ;
#3 = AXIS2_PLACEMENT_3D ( 'NONE', #229, #56, #158 ) ;
#4 = PLANE ( 'NONE',  #3 ) ;
#5 = DIRECTION ( 'NONE',  ( 4.275831445896958607E-31, 1.000000000000000000, 1.224646799147353207E-16 ) ) ;
#6 = FACE_OUTER_BOUND ( 'NONE', #212, .T. ) ;
#7 = PLANE ( 'NONE',  #136 ) ;
#8 = ADVANCED_FACE ( 'NONE', ( #36, #31 ), #95, .T. ) ;
#9 = PLANE ( 'NONE',  #115 ) ;
#10 = CIRCLE ( 'NONE', #63, 2.500000000000003997 ) ;
#11 = PRODUCT_DEFINITION_SHAPE ( 'NONE', 'NONE',  #210 ) ;
#12 = ORIENTED_EDGE ( 'NONE', *, *, #27, .F. ) ;
#13 = DIRECTION ( 'NONE',  ( -3.491481338843133355E-15, 1.224646799147353207E-16, -1.000000000000000000 ) ) ;
#14 = DATE_AND_TIME ( #88, #29 ) ;
#15 = DIRECTION ( 'NONE',  ( -3.491481338843133355E-15, 1.224646799147353207E-16, -1.000000000000000000 ) ) ;
#16 = CIRCLE ( 'NONE', #104, 2.749999999999998224 ) ;
#17 = SECURITY_CLASSIFICATION_LEVEL ( 'unclassified' ) ;
#18 = CARTESIAN_POINT ( 'NONE',  ( 0.000000000000000000, 0.000000000000000000, 0.000000000000000000 ) ) ;
#19 = APPROVAL_STATUS ( 'not_yet_approved' ) ;
#20 = FACE_OUTER_BOUND ( 'NONE', #208, .T. ) ;
#21 = CARTESIAN_POINT ( 'NONE',  ( 0.000000000000000000, 0.000000000000000000, 0.000000000000000000 ) ) ;
#22 = SHAPE_DEFINITION_REPRESENTATION ( #11, #28 ) ;
#23 = DIRECTION ( 'NONE',  ( -3.491481338843133355E-15, 1.224646799147353207E-16, -1.000000000000000000 ) ) ;
#24 = ORIENTED_EDGE ( 'NONE', *, *, #96, .F. ) ;
#25 = FACE_OUTER_BOUND ( 'NONE', #155, .T. ) ;
#26 = CC_DESIGN_SECURITY_CLASSIFICATION ( #179, ( #214 ) ) ;
#27 = EDGE_CURVE ( 'NONE', #163, #163, #43, .T. ) ;
#28 = ADVANCED_BREP_SHAPE_REPRESENTATION ( '976392', ( #221, #141, #235 ), #67 ) ;
#29 = LOCAL_TIME ( 11, 23, 10.00000000000000000, #240 ) ;
#30 = DATE_AND_TIME ( #199, #142 ) ;
#31 = FACE_OUTER_BOUND ( 'NONE', #127, .T. ) ;
#32 = APPROVAL_STATUS ( 'not_yet_approved' ) ;
#33 = AXIS2_PLACEMENT_3D ( 'NONE', #116, #196, #191 ) ;
#34 = PERSON_AND_ORGANIZATION_ROLE ( 'design_owner' ) ;
#35 = DIRECTION ( 'NONE',  ( 1.000000000000000000, 0.000000000000000000, 0.000000000000000000 ) ) ;
#36 = FACE_OUTER_BOUND ( 'NONE', #231, .T. ) ;
#37 = ADVANCED_FACE ( 'NONE', ( #89, #69 ), #224, .T. ) ;
#38 = APPROVAL_PERSON_ORGANIZATION ( #203, #40, #108 ) ;
#39 = DIRECTION ( 'NONE',  ( 0.000000000000000000, 1.000000000000000000, 0.000000000000000000 ) ) ;
#40 = APPROVAL ( #32, 'UNSPECIFIED' ) ;
#41 = ORIENTED_EDGE ( 'NONE', *, *, #101, .T. ) ;
#42 = DIRECTION ( 'NONE',  ( -3.491481338843133355E-15, 1.224646799147353207E-16, -1.000000000000000000 ) ) ;
#43 = CIRCLE ( 'NONE', #211, 2.750000000000000000 ) ;
#44 = DIRECTION ( 'NONE',  ( 4.275831445896959482E-31, 1.000000000000000000, 1.224646799147353207E-16 ) ) ;
#45 = ORIENTED_EDGE ( 'NONE', *, *, #219, .T. ) ;
#46 = EDGE_LOOP ( 'NONE', ( #45 ) ) ;
#47 = VERTEX_POINT ( 'NONE', #227 ) ;
#48 = ADVANCED_FACE ( 'NONE', ( #52, #202 ), #99, .T. ) ;
#49 =( NAMED_UNIT ( * ) SI_UNIT ( $, .STERADIAN. ) SOLID_ANGLE_UNIT ( ) );
#50 = CC_DESIGN_PERSON_AND_ORGANIZATION_ASSIGNMENT ( #91, #145, ( #179 ) ) ;
#51 = COORDINATED_UNIVERSAL_TIME_OFFSET ( 1, 0, .AHEAD. ) ;
#52 = FACE_OUTER_BOUND ( 'NONE', #143, .T. ) ;
#53 = CC_DESIGN_PERSON_AND_ORGANIZATION_ASSIGNMENT ( #111, #34, ( #80 ) ) ;
#54 = PERSON_AND_ORGANIZATION ( #97, #74 ) ;
#55 = AXIS2_PLACEMENT_3D ( 'NONE', #18, #209, #204 ) ;
#56 = DIRECTION ( 'NONE',  ( 3.491481338843133355E-15, -1.224646799147353207E-16, 1.000000000000000000 ) ) ;
#57 = CARTESIAN_POINT ( 'NONE',  ( 2.618611004132350143E-13, -9.184850993605148733E-15, 75.00000000000000000 ) ) ;
#58 = PRODUCT_RELATED_PRODUCT_CATEGORY ( 'detail', '', ( #80 ) ) ;
#59 = CYLINDRICAL_SURFACE ( 'NONE', #176, 3.000000000000000000 ) ;
#60 = LOCAL_TIME ( 11, 23, 10.00000000000000000, #133 ) ;
#61 = EDGE_LOOP ( 'NONE', ( #220 ) ) ;
#62 = EDGE_LOOP ( 'NONE', ( #103 ) ) ;
#63 = AXIS2_PLACEMENT_3D ( 'NONE', #57, #102, #84 ) ;
#64 = DIRECTION ( 'NONE',  ( 4.275831445896958607E-31, 1.000000000000000000, 1.224646799147353207E-16 ) ) ;
#65 = EDGE_CURVE ( 'NONE', #47, #47, #198, .T. ) ;
#66 = PERSON_AND_ORGANIZATION_ROLE ( 'design_supplier' ) ;
#67 =( GEOMETRIC_REPRESENTATION_CONTEXT ( 3 ) GLOBAL_UNCERTAINTY_ASSIGNED_CONTEXT ( ( #169 ) ) GLOBAL_UNIT_ASSIGNED_CONTEXT ( ( #166, #171, #49 ) ) REPRESENTATION_CONTEXT ( 'NONE', 'WORKASPACE' ) );
#68 = PERSON_AND_ORGANIZATION_ROLE ( 'creator' ) ;
#69 = FACE_OUTER_BOUND ( 'NONE', #82, .T. ) ;
#70 = EDGE_LOOP ( 'NONE', ( #77 ) ) ;
#71 = CARTESIAN_POINT ( 'NONE',  ( 0.000000000000000000, 0.000000000000000000, 0.000000000000000000 ) ) ;
#72 = CC_DESIGN_PERSON_AND_ORGANIZATION_ASSIGNMENT ( #105, #68, ( #210 ) ) ;
#73 = DATE_TIME_ROLE ( 'classification_date' ) ;
#74 = ORGANIZATION ( 'UNSPECIFIED', 'UNSPECIFIED', '' ) ;
#75 = DIRECTION ( 'NONE',  ( -3.491481338843133355E-15, 1.224646799147353207E-16, -1.000000000000000000 ) ) ;
#76 = DIRECTION ( 'NONE',  ( 3.491481338843133355E-15, -1.224646799147353207E-16, 1.000000000000000000 ) ) ;
#77 = ORIENTED_EDGE ( 'NONE', *, *, #101, .F. ) ;
#78 = DIRECTION ( 'NONE',  ( -4.275831445896958607E-31, -1.000000000000000000, -1.224646799147353207E-16 ) ) ;
#79 = AXIS2_PLACEMENT_3D ( 'NONE', #159, #174, #118 ) ;
#80 = PRODUCT ( '976392', '976392', '', ( #239 ) ) ;
#81 = CC_DESIGN_DATE_AND_TIME_ASSIGNMENT ( #30, #130, ( #210 ) ) ;
#82 = EDGE_LOOP ( 'NONE', ( #125 ) ) ;
#83 = DESIGN_CONTEXT ( 'detailed design', #216, 'design' ) ;
#84 = DIRECTION ( 'NONE',  ( 0.000000000000000000, 1.000000000000000000, 0.000000000000000000 ) ) ;
#85 = CC_DESIGN_APPROVAL ( #123, ( #210 ) ) ;
#86 = EDGE_CURVE ( 'NONE', #129, #129, #190, .T. ) ;
#87 = DATE_AND_TIME ( #170, #131 ) ;
#88 = CALENDAR_DATE ( 2024, 12, 7 ) ;
#89 = FACE_OUTER_BOUND ( 'NONE', #120, .T. ) ;
#90 = AXIS2_PLACEMENT_3D ( 'NONE', #177, #75, #5 ) ;
#91 = PERSON_AND_ORGANIZATION ( #97, #74 ) ;
#92 = CARTESIAN_POINT ( 'NONE',  ( 2.793185071074506684E-14, 2.749999999999997335, 8.000000000000000000 ) ) ;
#93 = DIRECTION ( 'NONE',  ( 0.000000000000000000, 1.000000000000000000, 0.000000000000000000 ) ) ;
#94 = DATE_AND_TIME ( #153, #128 ) ;
#95 = CYLINDRICAL_SURFACE ( 'NONE', #55, 2.749999999999999112 ) ;
#96 = EDGE_CURVE ( 'NONE', #109, #109, #16, .T. ) ;
#97 = PERSON ( 'UNSPECIFIED', 'UNSPECIFIED', 'UNSPECIFIED', ('UNSPECIFIED'), ('UNSPECIFIED'), ('UNSPECIFIED') ) ;
#98 = CARTESIAN_POINT ( 'NONE',  ( 2.793185071074506684E-14, 2.062169701160051474E-32, 8.000000000000000000 ) ) ;
#99 = CONICAL_SURFACE ( 'NONE', #223, 2.500000000000003997, 0.7853981633974479459 ) ;
#100 = DIRECTION ( 'NONE',  ( -3.491481338843133355E-15, 1.224646799147353207E-16, -1.000000000000000000 ) ) ;
#101 = EDGE_CURVE ( 'NONE', #185, #185, #181, .T. ) ;
#102 = DIRECTION ( 'NONE',  ( -3.491481338843133355E-15, 1.224646799147353207E-16, -1.000000000000000000 ) ) ;
#103 = ORIENTED_EDGE ( 'NONE', *, *, #86, .F. ) ;
#104 = AXIS2_PLACEMENT_3D ( 'NONE', #175, #23, #156 ) ;
#105 = PERSON_AND_ORGANIZATION ( #97, #74 ) ;
#106 = APPROVAL_ROLE ( '' ) ;
#107 = DIRECTION ( 'NONE',  ( 4.275831445896959482E-31, 1.000000000000000000, 1.224646799147353207E-16 ) ) ;
#108 = APPROVAL_ROLE ( '' ) ;
#109 = VERTEX_POINT ( 'NONE', #92 ) ;
#110 = CARTESIAN_POINT ( 'NONE',  ( 1.195832358553773395E-13, -4.194415287079684346E-15, 34.25000000000000000 ) ) ;
#111 = PERSON_AND_ORGANIZATION ( #97, #74 ) ;
#112 = ADVANCED_FACE ( 'NONE', ( #20 ), #215, .F. ) ;
#113 = APPROVAL_STATUS ( 'not_yet_approved' ) ;
#114 = CARTESIAN_POINT ( 'NONE',  ( 0.000000000000000000, 0.000000000000000000, 0.000000000000000000 ) ) ;
#115 = AXIS2_PLACEMENT_3D ( 'NONE', #180, #13, #64 ) ;
#116 = CARTESIAN_POINT ( 'NONE',  ( 2.793185071074506684E-14, -9.797174393178825657E-16, 8.000000000000000000 ) ) ;
#117 = CALENDAR_DATE ( 2024, 12, 7 ) ;
#118 = DIRECTION ( 'NONE',  ( 0.000000000000000000, -1.000000000000000000, 0.000000000000000000 ) ) ;
#119 = DIRECTION ( 'NONE',  ( 4.275831445896959482E-31, 1.000000000000000000, 1.224646799147353207E-16 ) ) ;
#120 = EDGE_LOOP ( 'NONE', ( #238 ) ) ;
#121 = CARTESIAN_POINT ( 'NONE',  ( -1.282749433769087757E-30, 4.499279347985572824E-32, -3.673940397442059868E-16 ) ) ;
#122 = FACE_BOUND ( 'NONE', #234, .T. ) ;
#123 = APPROVAL ( #19, 'UNSPECIFIED' ) ;
#124 = AXIS2_PLACEMENT_3D ( 'NONE', #138, #140, #39 ) ;
#125 = ORIENTED_EDGE ( 'NONE', *, *, #65, .T. ) ;
#126 = CARTESIAN_POINT ( 'NONE',  ( 0.000000000000000000, 3.000000000000000000, 0.000000000000000000 ) ) ;
#127 = EDGE_LOOP ( 'NONE', ( #24 ) ) ;
#128 = LOCAL_TIME ( 11, 23, 10.00000000000000000, #183 ) ;
#129 = VERTEX_POINT ( 'NONE', #126 ) ;
#130 = DATE_TIME_ROLE ( 'creation_date' ) ;
#131 = LOCAL_TIME ( 11, 23, 10.00000000000000000, #135 ) ;
#132 = ORIENTED_EDGE ( 'NONE', *, *, #1, .T. ) ;
#133 = COORDINATED_UNIVERSAL_TIME_OFFSET ( 1, 0, .AHEAD. ) ;
#134 = DIRECTION ( 'NONE',  ( -3.491481338843133355E-15, 1.224646799147353207E-16, -1.000000000000000000 ) ) ;
#135 = COORDINATED_UNIVERSAL_TIME_OFFSET ( 1, 0, .AHEAD. ) ;
#136 = AXIS2_PLACEMENT_3D ( 'NONE', #98, #76, #78 ) ;
#137 = ADVANCED_FACE ( 'NONE', ( #6, #213 ), #59, .T. ) ;
#138 = CARTESIAN_POINT ( 'NONE',  ( 2.601153597438134034E-13, -9.123618653647781159E-15, 74.50000000000000000 ) ) ;
#139 = AXIS2_PLACEMENT_3D ( 'NONE', #114, #165, #107 ) ;
#140 = DIRECTION ( 'NONE',  ( -3.491481338843133355E-15, 1.224646799147353207E-16, -1.000000000000000000 ) ) ;
#141 = MANIFOLD_SOLID_BREP ( 'Corps-Déplacer/Copier1[2]', #187 ) ;
#142 = LOCAL_TIME ( 11, 23, 10.00000000000000000, #51 ) ;
#143 = EDGE_LOOP ( 'NONE', ( #160 ) ) ;
#144 = VERTEX_POINT ( 'NONE', #218 ) ;
#145 = PERSON_AND_ORGANIZATION_ROLE ( 'classification_officer' ) ;
#146 = DIRECTION ( 'NONE',  ( 0.000000000000000000, 1.000000000000000000, 0.000000000000000000 ) ) ;
#147 = AXIS2_PLACEMENT_3D ( 'NONE', #121, #100, #119 ) ;
#148 = PERSON_AND_ORGANIZATION ( #97, #74 ) ;
#149 = DIRECTION ( 'NONE',  ( 0.000000000000000000, 1.000000000000000000, 0.000000000000000000 ) ) ;
#150 = PERSON_AND_ORGANIZATION ( #97, #74 ) ;
#151 = CARTESIAN_POINT ( 'NONE',  ( 1.187103655206665341E-13, -4.163799117101000559E-15, 34.00000000000000000 ) ) ;
#152 = CIRCLE ( 'NONE', #173, 2.999999999999995115 ) ;
#153 = CALENDAR_DATE ( 2024, 12, 7 ) ;
#154 = ADVANCED_FACE ( 'NONE', ( #178 ), #7, .F. ) ;
#155 = EDGE_LOOP ( 'NONE', ( #217 ) ) ;
#156 = DIRECTION ( 'NONE',  ( 0.000000000000000000, 1.000000000000000000, 0.000000000000000000 ) ) ;
#157 = APPROVAL_DATE_TIME ( #192, #193 ) ;
#158 = DIRECTION ( 'NONE',  ( -4.275831445896958607E-31, -1.000000000000000000, -1.224646799147353207E-16 ) ) ;
#159 = CARTESIAN_POINT ( 'NONE',  ( 1.187103655206665341E-13, -4.163799117101000559E-15, 34.00000000000000000 ) ) ;
#160 = ORIENTED_EDGE ( 'NONE', *, *, #65, .F. ) ;
#161 = FACE_OUTER_BOUND ( 'NONE', #200, .T. ) ;
#162 = CC_DESIGN_PERSON_AND_ORGANIZATION_ASSIGNMENT ( #150, #206, ( #214 ) ) ;
#163 = VERTEX_POINT ( 'NONE', #222 ) ;
#164 = ORIENTED_EDGE ( 'NONE', *, *, #27, .T. ) ;
#165 = DIRECTION ( 'NONE',  ( -3.491481338843133355E-15, 1.224646799147353207E-16, -1.000000000000000000 ) ) ;
#166 =( LENGTH_UNIT ( ) NAMED_UNIT ( * ) SI_UNIT ( .MILLI., .METRE. ) );
#167 = CC_DESIGN_DATE_AND_TIME_ASSIGNMENT ( #87, #73, ( #179 ) ) ;
#168 = CARTESIAN_POINT ( 'NONE',  ( 2.618611004132350143E-13, -9.184850993605148733E-15, 75.00000000000000000 ) ) ;
#169 = UNCERTAINTY_MEASURE_WITH_UNIT (LENGTH_MEASURE( 1.000000000000000082E-05 ), #166, 'distance_accuracy_value', 'NONE');
#170 = CALENDAR_DATE ( 2024, 12, 7 ) ;
#171 =( NAMED_UNIT ( * ) PLANE_ANGLE_UNIT ( ) SI_UNIT ( $, .RADIAN. ) );
#172 = APPROVAL_DATE_TIME ( #94, #40 ) ;
#173 = AXIS2_PLACEMENT_3D ( 'NONE', #110, #134, #146 ) ;
#174 = DIRECTION ( 'NONE',  ( 3.491481338843133355E-15, -1.224646799147353207E-16, 1.000000000000000000 ) ) ;
#175 = CARTESIAN_POINT ( 'NONE',  ( 2.793185071074506684E-14, -9.797174393178825657E-16, 8.000000000000000000 ) ) ;
#176 = AXIS2_PLACEMENT_3D ( 'NONE', #21, #42, #44 ) ;
#177 = CARTESIAN_POINT ( 'NONE',  ( 2.618611004132350143E-13, 1.874699728327311336E-32, 75.00000000000000000 ) ) ;
#178 = FACE_OUTER_BOUND ( 'NONE', #61, .T. ) ;
#179 = SECURITY_CLASSIFICATION ( '', '', #17 ) ;
#180 = CARTESIAN_POINT ( 'NONE',  ( -6.413747168845438786E-31, 2.249639673992786412E-32, -1.836970198721029934E-16 ) ) ;
#181 = CIRCLE ( 'NONE', #33, 3.000000000000000000 ) ;
#182 = ADVANCED_FACE ( 'NONE', ( #161, #122 ), #230, .T. ) ;
#183 = COORDINATED_UNIVERSAL_TIME_OFFSET ( 1, 0, .AHEAD. ) ;
#184 = CC_DESIGN_PERSON_AND_ORGANIZATION_ASSIGNMENT ( #2, #66, ( #214 ) ) ;
#185 = VERTEX_POINT ( 'NONE', #226 ) ;
#186 = VERTEX_POINT ( 'NONE', #201 ) ;
#187 = CLOSED_SHELL ( 'NONE', ( #243, #137, #197 ) ) ;
#188 = DIRECTION ( 'NONE',  ( -3.491481338843133355E-15, 1.224646799147353207E-16, -1.000000000000000000 ) ) ;
#189 = APPLICATION_PROTOCOL_DEFINITION ( 'international standard', 'config_control_design', 1994, #216 ) ;
#190 = CIRCLE ( 'NONE', #147, 3.000000000000000000 ) ;
#191 = DIRECTION ( 'NONE',  ( 0.000000000000000000, 1.000000000000000000, 0.000000000000000000 ) ) ;
#192 = DATE_AND_TIME ( #117, #60 ) ;
#193 = APPROVAL ( #113, 'UNSPECIFIED' ) ;
#194 = APPROVAL_ROLE ( '' ) ;
#195 = APPROVAL_PERSON_ORGANIZATION ( #148, #123, #106 ) ;
#196 = DIRECTION ( 'NONE',  ( -3.491481338843133355E-15, 1.224646799147353207E-16, -1.000000000000000000 ) ) ;
#197 = ADVANCED_FACE ( 'NONE', ( #232 ), #4, .T. ) ;
#198 = CIRCLE ( 'NONE', #124, 3.000000000000003997 ) ;
#199 = CALENDAR_DATE ( 2024, 12, 7 ) ;
#200 = EDGE_LOOP ( 'NONE', ( #132 ) ) ;
#201 = CARTESIAN_POINT ( 'NONE',  ( 2.618611004132350143E-13, 2.499999999999994671, 75.00000000000000000 ) ) ;
#202 = FACE_BOUND ( 'NONE', #46, .T. ) ;
#203 = PERSON_AND_ORGANIZATION ( #97, #74 ) ;
#204 = DIRECTION ( 'NONE',  ( 4.275831445896958607E-31, 1.000000000000000000, 1.224646799147353207E-16 ) ) ;
#205 = APPLICATION_CONTEXT ( 'configuration controlled 3d designs of mechanical parts and assemblies' ) ;
#206 = PERSON_AND_ORGANIZATION_ROLE ( 'creator' ) ;
#207 = APPROVAL_PERSON_ORGANIZATION ( #54, #193, #194 ) ;
#208 = EDGE_LOOP ( 'NONE', ( #233 ) ) ;
#209 = DIRECTION ( 'NONE',  ( -3.491481338843133355E-15, 1.224646799147353207E-16, -1.000000000000000000 ) ) ;
#210 = PRODUCT_DEFINITION ( 'UNKNOWN', '', #214, #83 ) ;
#211 = AXIS2_PLACEMENT_3D ( 'NONE', #151, #15, #149 ) ;
#212 = EDGE_LOOP ( 'NONE', ( #41 ) ) ;
#213 = FACE_OUTER_BOUND ( 'NONE', #62, .T. ) ;
#214 = PRODUCT_DEFINITION_FORMATION_WITH_SPECIFIED_SOURCE ( 'ANY', '', #80, .NOT_KNOWN. ) ;
#215 = PLANE ( 'NONE',  #90 ) ;
#216 = APPLICATION_CONTEXT ( 'configuration controlled 3d designs of mechanical parts and assemblies' ) ;
#217 = ORIENTED_EDGE ( 'NONE', *, *, #86, .T. ) ;
#218 = CARTESIAN_POINT ( 'NONE',  ( 1.195832358553773395E-13, 2.999999999999991118, 34.25000000000000000 ) ) ;
#219 = EDGE_CURVE ( 'NONE', #186, #186, #10, .T. ) ;
#220 = ORIENTED_EDGE ( 'NONE', *, *, #96, .T. ) ;
#221 = MANIFOLD_SOLID_BREP ( 'Corps-Déplacer/Copier1[1]', #236 ) ;
#222 = CARTESIAN_POINT ( 'NONE',  ( 1.187103655206665341E-13, 2.749999999999995559, 34.00000000000000000 ) ) ;
#223 = AXIS2_PLACEMENT_3D ( 'NONE', #168, #188, #93 ) ;
#224 = CYLINDRICAL_SURFACE ( 'NONE', #139, 2.999999999999999556 ) ;
#225 = DIRECTION ( 'NONE',  ( 0.000000000000000000, 0.000000000000000000, 1.000000000000000000 ) ) ;
#226 = CARTESIAN_POINT ( 'NONE',  ( 2.793185071074506684E-14, 2.999999999999999112, 8.000000000000000000 ) ) ;
#227 = CARTESIAN_POINT ( 'NONE',  ( 2.601153597438134034E-13, 2.999999999999994671, 74.50000000000000000 ) ) ;
#228 = APPLICATION_PROTOCOL_DEFINITION ( 'international standard', 'config_control_design', 1994, #205 ) ;
#229 = CARTESIAN_POINT ( 'NONE',  ( 2.793185071074506684E-14, 2.249639673992785317E-32, 8.000000000000000000 ) ) ;
#230 = CONICAL_SURFACE ( 'NONE', #79, 2.750000000000000000, 0.7853981633974387311 ) ;
#231 = EDGE_LOOP ( 'NONE', ( #164 ) ) ;
#232 = FACE_OUTER_BOUND ( 'NONE', #70, .T. ) ;
#233 = ORIENTED_EDGE ( 'NONE', *, *, #219, .F. ) ;
#234 = EDGE_LOOP ( 'NONE', ( #12 ) ) ;
#235 = AXIS2_PLACEMENT_3D ( 'NONE', #71, #225, #35 ) ;
#236 = CLOSED_SHELL ( 'NONE', ( #154, #8, #182, #37, #48, #112 ) ) ;
#237 = CC_DESIGN_APPROVAL ( #40, ( #214 ) ) ;
#238 = ORIENTED_EDGE ( 'NONE', *, *, #1, .F. ) ;
#239 = MECHANICAL_CONTEXT ( 'NONE', #205, 'mechanical' ) ;
#240 = COORDINATED_UNIVERSAL_TIME_OFFSET ( 1, 0, .AHEAD. ) ;
#241 = CC_DESIGN_APPROVAL ( #193, ( #179 ) ) ;
#242 = APPROVAL_DATE_TIME ( #14, #123 ) ;
#243 = ADVANCED_FACE ( 'NONE', ( #25 ), #9, .T. ) ;
ENDSEC;
END-ISO-10303-21;
