ISO-10303-21;
HEADER;
FILE_DESCRIPTION (( 'STEP AP203' ),
    '1' );
FILE_NAME ('976391.step',
    '2024-07-12T09:23:10',
    ( '' ),
    ( '' ),
    'SwSTEP 2.0',
    'SolidWorks 2022',
    '' );
FILE_SCHEMA (( 'CONFIG_CONTROL_DESIGN' ));
ENDSEC;

DATA;
#1 = DATE_TIME_ROLE ( 'classification_date' ) ;
#2 = CLOSED_SHELL ( 'NONE', ( #242, #230, #118, #26, #36, #62 ) ) ;
#3 = CARTESIAN_POINT ( 'NONE',  ( 0.000000000000000000, 0.000000000000000000, 0.000000000000000000 ) ) ;
#4 = EDGE_LOOP ( 'NONE', ( #235 ) ) ;
#5 = CYLINDRICAL_SURFACE ( 'NONE', #173, 2.749999999999999556 ) ;
#6 = FACE_OUTER_BOUND ( 'NONE', #163, .T. ) ;
#7 = DIRECTION ( 'NONE',  ( -4.275831445896958607E-31, -1.000000000000000000, -1.224646799147353207E-16 ) ) ;
#8 =( NAMED_UNIT ( * ) PLANE_ANGLE_UNIT ( ) SI_UNIT ( $, .RADIAN. ) );
#9 = AXIS2_PLACEMENT_3D ( 'NONE', #17, #52, #208 ) ;
#10 = PRODUCT_DEFINITION_SHAPE ( 'NONE', 'NONE',  #105 ) ;
#11 = CARTESIAN_POINT ( 'NONE',  ( 1.990144363140586139E-13, 1.874699728327309967E-32, 57.00000000000000000 ) ) ;
#12 = PERSON_AND_ORGANIZATION ( #83, #142 ) ;
#13 = FACE_OUTER_BOUND ( 'NONE', #79, .T. ) ;
#14 = LOCAL_TIME ( 11, 23, 10.00000000000000000, #229 ) ;
#15 = DATE_AND_TIME ( #31, #119 ) ;
#16 = DATE_AND_TIME ( #189, #166 ) ;
#17 = CARTESIAN_POINT ( 'NONE',  ( 4.189777606611760026E-14, -1.469576158976823947E-15, 12.00000000000000000 ) ) ;
#18 = VERTEX_POINT ( 'NONE', #140 ) ;
#19 = CARTESIAN_POINT ( 'NONE',  ( 4.277064640082838045E-14, 2.999999999999993339, 12.24999999999999822 ) ) ;
#20 = ORIENTED_EDGE ( 'NONE', *, *, #86, .T. ) ;
#21 = CYLINDRICAL_SURFACE ( 'NONE', #215, 2.999999999999996003 ) ;
#22 = DIRECTION ( 'NONE',  ( 0.000000000000000000, 1.000000000000000000, 0.000000000000000000 ) ) ;
#23 = FACE_OUTER_BOUND ( 'NONE', #96, .T. ) ;
#24 = APPROVAL_STATUS ( 'not_yet_approved' ) ;
#25 = ORIENTED_EDGE ( 'NONE', *, *, #201, .F. ) ;
#26 = ADVANCED_FACE ( 'NONE', ( #193, #23 ), #21, .T. ) ;
#27 = CIRCLE ( 'NONE', #170, 2.999999999999994227 ) ;
#28 = AXIS2_PLACEMENT_3D ( 'NONE', #11, #223, #239 ) ;
#29 = CC_DESIGN_PERSON_AND_ORGANIZATION_ASSIGNMENT ( #51, #128, ( #75 ) ) ;
#30 = AXIS2_PLACEMENT_3D ( 'NONE', #191, #122, #22 ) ;
#31 = CALENDAR_DATE ( 2024, 12, 7 ) ;
#32 = DIRECTION ( 'NONE',  ( -3.491481338843133355E-15, 1.224646799147353207E-16, -1.000000000000000000 ) ) ;
#33 = APPROVAL_DATE_TIME ( #226, #60 ) ;
#34 = APPROVAL ( #188, 'UNSPECIFIED' ) ;
#35 = CYLINDRICAL_SURFACE ( 'NONE', #139, 3.000000000000000000 ) ;
#36 = ADVANCED_FACE ( 'NONE', ( #238, #81 ), #147, .T. ) ;
#37 = AXIS2_PLACEMENT_3D ( 'NONE', #169, #91, #131 ) ;
#38 = CARTESIAN_POINT ( 'NONE',  ( 2.094888803305880013E-14, 2.749999999999998668, 6.000000000000000000 ) ) ;
#39 = ORIENTED_EDGE ( 'NONE', *, *, #162, .F. ) ;
#40 = EDGE_LOOP ( 'NONE', ( #57 ) ) ;
#41 = CARTESIAN_POINT ( 'NONE',  ( 1.972686956446370535E-13, 2.999999999999991118, 56.50000000000000000 ) ) ;
#42 = DIRECTION ( 'NONE',  ( 0.000000000000000000, 1.000000000000000000, 0.000000000000000000 ) ) ;
#43 = CARTESIAN_POINT ( 'NONE',  ( 1.972686956446370535E-13, -6.919254415182545337E-15, 56.50000000000000000 ) ) ;
#44 = AXIS2_PLACEMENT_3D ( 'NONE', #178, #217, #73 ) ;
#45 = CARTESIAN_POINT ( 'NONE',  ( 0.000000000000000000, 0.000000000000000000, 0.000000000000000000 ) ) ;
#46 = EDGE_CURVE ( 'NONE', #77, #77, #111, .T. ) ;
#47 = CARTESIAN_POINT ( 'NONE',  ( 2.094888803305880013E-14, 2.249639673992785317E-32, 6.000000000000000000 ) ) ;
#48 = PERSON_AND_ORGANIZATION_ROLE ( 'design_owner' ) ;
#49 = PERSON_AND_ORGANIZATION_ROLE ( 'creator' ) ;
#50 = DESIGN_CONTEXT ( 'detailed design', #141, 'design' ) ;
#51 = PERSON_AND_ORGANIZATION ( #83, #142 ) ;
#52 = DIRECTION ( 'NONE',  ( 3.491481338843133355E-15, -1.224646799147353207E-16, 1.000000000000000000 ) ) ;
#53 = CONICAL_SURFACE ( 'NONE', #9, 2.749999999999999556, 0.7853981633974415066 ) ;
#54 = CIRCLE ( 'NONE', #63, 2.499999999999997780 ) ;
#55 = LOCAL_TIME ( 11, 23, 10.00000000000000000, #107 ) ;
#56 = VERTEX_POINT ( 'NONE', #95 ) ;
#57 = ORIENTED_EDGE ( 'NONE', *, *, #90, .T. ) ;
#58 = DIRECTION ( 'NONE',  ( -3.491481338843133355E-15, 1.224646799147353207E-16, -1.000000000000000000 ) ) ;
#59 = DIRECTION ( 'NONE',  ( -3.491481338843133355E-15, 1.224646799147353207E-16, -1.000000000000000000 ) ) ;
#60 = APPROVAL ( #24, 'UNSPECIFIED' ) ;
#61 = CARTESIAN_POINT ( 'NONE',  ( 1.990144363140586139E-13, -6.980486755139912911E-15, 57.00000000000000000 ) ) ;
#62 = ADVANCED_FACE ( 'NONE', ( #202 ), #167, .F. ) ;
#63 = AXIS2_PLACEMENT_3D ( 'NONE', #204, #32, #68 ) ;
#64 = DIRECTION ( 'NONE',  ( 1.000000000000000000, 0.000000000000000000, 0.000000000000000000 ) ) ;
#65 = CC_DESIGN_APPROVAL ( #124, ( #75 ) ) ;
#66 = CALENDAR_DATE ( 2024, 12, 7 ) ;
#67 = DIRECTION ( 'NONE',  ( 3.491481338843133355E-15, -1.224646799147353207E-16, 1.000000000000000000 ) ) ;
#68 = DIRECTION ( 'NONE',  ( 0.000000000000000000, 1.000000000000000000, 0.000000000000000000 ) ) ;
#69 = CC_DESIGN_PERSON_AND_ORGANIZATION_ASSIGNMENT ( #130, #49, ( #75 ) ) ;
#70 = DATE_AND_TIME ( #89, #55 ) ;
#71 = CLOSED_SHELL ( 'NONE', ( #110, #200, #82 ) ) ;
#72 = CALENDAR_DATE ( 2024, 12, 7 ) ;
#73 = DIRECTION ( 'NONE',  ( 0.000000000000000000, 1.000000000000000000, 0.000000000000000000 ) ) ;
#74 = EDGE_LOOP ( 'NONE', ( #20 ) ) ;
#75 = PRODUCT_DEFINITION_FORMATION_WITH_SPECIFIED_SOURCE ( 'ANY', '', #80, .NOT_KNOWN. ) ;
#76 = DIRECTION ( 'NONE',  ( 4.275831445896959482E-31, 1.000000000000000000, 1.224646799147353207E-16 ) ) ;
#77 = VERTEX_POINT ( 'NONE', #41 ) ;
#78 = CC_DESIGN_DATE_AND_TIME_ASSIGNMENT ( #16, #1, ( #160 ) ) ;
#79 = EDGE_LOOP ( 'NONE', ( #39 ) ) ;
#80 = PRODUCT ( '976391', '976391', '', ( #84 ) ) ;
#81 = FACE_BOUND ( 'NONE', #40, .T. ) ;
#82 = ADVANCED_FACE ( 'NONE', ( #145 ), #225, .T. ) ;
#83 = PERSON ( 'UNSPECIFIED', 'UNSPECIFIED', 'UNSPECIFIED', ('UNSPECIFIED'), ('UNSPECIFIED'), ('UNSPECIFIED') ) ;
#84 = MECHANICAL_CONTEXT ( 'NONE', #98, 'mechanical' ) ;
#85 = CC_DESIGN_APPROVAL ( #60, ( #105 ) ) ;
#86 = EDGE_CURVE ( 'NONE', #120, #120, #27, .T. ) ;
#87 = CARTESIAN_POINT ( 'NONE',  ( 0.000000000000000000, 0.000000000000000000, 0.000000000000000000 ) ) ;
#88 = CIRCLE ( 'NONE', #187, 2.749999999999999556 ) ;
#89 = CALENDAR_DATE ( 2024, 12, 7 ) ;
#90 = EDGE_CURVE ( 'NONE', #158, #158, #54, .T. ) ;
#91 = DIRECTION ( 'NONE',  ( -3.491481338843133355E-15, 1.224646799147353207E-16, -1.000000000000000000 ) ) ;
#92 = APPROVAL_ROLE ( '' ) ;
#93 = PLANE ( 'NONE',  #112 ) ;
#94 = AXIS2_PLACEMENT_3D ( 'NONE', #45, #185, #64 ) ;
#95 = CARTESIAN_POINT ( 'NONE',  ( 0.000000000000000000, 3.000000000000000000, 0.000000000000000000 ) ) ;
#96 = EDGE_LOOP ( 'NONE', ( #237 ) ) ;
#97 = CARTESIAN_POINT ( 'NONE',  ( 0.000000000000000000, 0.000000000000000000, 0.000000000000000000 ) ) ;
#98 = APPLICATION_CONTEXT ( 'configuration controlled 3d designs of mechanical parts and assemblies' ) ;
#99 = CARTESIAN_POINT ( 'NONE',  ( 1.990144363140586139E-13, 2.499999999999991118, 57.00000000000000000 ) ) ;
#100 = EDGE_LOOP ( 'NONE', ( #138 ) ) ;
#101 = DIRECTION ( 'NONE',  ( -3.491481338843133355E-15, 1.224646799147353207E-16, -1.000000000000000000 ) ) ;
#102 = PERSON_AND_ORGANIZATION ( #83, #142 ) ;
#103 = APPROVAL_ROLE ( '' ) ;
#104 = FACE_OUTER_BOUND ( 'NONE', #181, .T. ) ;
#105 = PRODUCT_DEFINITION ( 'UNKNOWN', '', #75, #50 ) ;
#106 = LOCAL_TIME ( 11, 23, 10.00000000000000000, #203 ) ;
#107 = COORDINATED_UNIVERSAL_TIME_OFFSET ( 1, 0, .AHEAD. ) ;
#108 = FACE_OUTER_BOUND ( 'NONE', #135, .T. ) ;
#109 = DIRECTION ( 'NONE',  ( -3.491481338843133355E-15, 1.224646799147353207E-16, -1.000000000000000000 ) ) ;
#110 = ADVANCED_FACE ( 'NONE', ( #108 ), #93, .T. ) ;
#111 = CIRCLE ( 'NONE', #134, 2.999999999999997780 ) ;
#112 = AXIS2_PLACEMENT_3D ( 'NONE', #205, #154, #157 ) ;
#113 = DIRECTION ( 'NONE',  ( -3.491481338843133355E-15, 1.224646799147353207E-16, -1.000000000000000000 ) ) ;
#114 = FACE_OUTER_BOUND ( 'NONE', #218, .T. ) ;
#115 = EDGE_LOOP ( 'NONE', ( #192 ) ) ;
#116 = CARTESIAN_POINT ( 'NONE',  ( 2.094888803305880013E-14, 2.062169701160052569E-32, 6.000000000000000000 ) ) ;
#117 = ORIENTED_EDGE ( 'NONE', *, *, #220, .F. ) ;
#118 = ADVANCED_FACE ( 'NONE', ( #190, #209 ), #53, .T. ) ;
#119 = LOCAL_TIME ( 11, 23, 10.00000000000000000, #206 ) ;
#120 = VERTEX_POINT ( 'NONE', #19 ) ;
#121 = ORIENTED_EDGE ( 'NONE', *, *, #86, .F. ) ;
#122 = DIRECTION ( 'NONE',  ( -3.491481338843133355E-15, 1.224646799147353207E-16, -1.000000000000000000 ) ) ;
#123 = APPROVAL_PERSON_ORGANIZATION ( #12, #124, #92 ) ;
#124 = APPROVAL ( #126, 'UNSPECIFIED' ) ;
#125 = DIRECTION ( 'NONE',  ( 0.000000000000000000, 1.000000000000000000, 0.000000000000000000 ) ) ;
#126 = APPROVAL_STATUS ( 'not_yet_approved' ) ;
#127 = DIRECTION ( 'NONE',  ( 0.000000000000000000, 1.000000000000000000, 0.000000000000000000 ) ) ;
#128 = PERSON_AND_ORGANIZATION_ROLE ( 'design_supplier' ) ;
#129 = COORDINATED_UNIVERSAL_TIME_OFFSET ( 1, 0, .AHEAD. ) ;
#130 = PERSON_AND_ORGANIZATION ( #83, #142 ) ;
#131 = DIRECTION ( 'NONE',  ( 4.275831445896959482E-31, 1.000000000000000000, 1.224646799147353207E-16 ) ) ;
#132 = CARTESIAN_POINT ( 'NONE',  ( 4.277064640082838045E-14, -1.500192328955507537E-15, 12.24999999999999822 ) ) ;
#133 = MANIFOLD_SOLID_BREP ( 'Corps-Déplacer/Copier1[1]', #2 ) ;
#134 = AXIS2_PLACEMENT_3D ( 'NONE', #43, #101, #125 ) ;
#135 = EDGE_LOOP ( 'NONE', ( #177 ) ) ;
#136 = CC_DESIGN_DATE_AND_TIME_ASSIGNMENT ( #15, #243, ( #105 ) ) ;
#137 = CARTESIAN_POINT ( 'NONE',  ( 4.189777606611760026E-14, -1.469576158976823947E-15, 12.00000000000000000 ) ) ;
#138 = ORIENTED_EDGE ( 'NONE', *, *, #210, .F. ) ;
#139 = AXIS2_PLACEMENT_3D ( 'NONE', #87, #172, #151 ) ;
#140 = CARTESIAN_POINT ( 'NONE',  ( 2.094888803305880013E-14, 2.999999999999999112, 6.000000000000000000 ) ) ;
#141 = APPLICATION_CONTEXT ( 'configuration controlled 3d designs of mechanical parts and assemblies' ) ;
#142 = ORGANIZATION ( 'UNSPECIFIED', 'UNSPECIFIED', '' ) ;
#143 = CC_DESIGN_PERSON_AND_ORGANIZATION_ASSIGNMENT ( #102, #175, ( #160 ) ) ;
#144 = UNCERTAINTY_MEASURE_WITH_UNIT (LENGTH_MEASURE( 1.000000000000000082E-05 ), #161, 'distance_accuracy_value', 'NONE');
#145 = FACE_OUTER_BOUND ( 'NONE', #100, .T. ) ;
#146 = CC_DESIGN_PERSON_AND_ORGANIZATION_ASSIGNMENT ( #224, #48, ( #80 ) ) ;
#147 = CONICAL_SURFACE ( 'NONE', #241, 2.499999999999997780, 0.7853981633974479459 ) ;
#148 = DIRECTION ( 'NONE',  ( -4.275831445896958607E-31, -1.000000000000000000, -1.224646799147353207E-16 ) ) ;
#149 = CIRCLE ( 'NONE', #37, 3.000000000000000000 ) ;
#150 = DATE_AND_TIME ( #72, #106 ) ;
#151 = DIRECTION ( 'NONE',  ( 4.275831445896959482E-31, 1.000000000000000000, 1.224646799147353207E-16 ) ) ;
#152 = ADVANCED_BREP_SHAPE_REPRESENTATION ( '976391', ( #133, #219, #94 ), #194 ) ;
#153 = SHAPE_DEFINITION_REPRESENTATION ( #10, #152 ) ;
#154 = DIRECTION ( 'NONE',  ( -3.491481338843133355E-15, 1.224646799147353207E-16, -1.000000000000000000 ) ) ;
#155 = APPROVAL_DATE_TIME ( #70, #124 ) ;
#156 = PERSON_AND_ORGANIZATION_ROLE ( 'creator' ) ;
#157 = DIRECTION ( 'NONE',  ( 4.275831445896958607E-31, 1.000000000000000000, 1.224646799147353207E-16 ) ) ;
#158 = VERTEX_POINT ( 'NONE', #99 ) ;
#159 = ORIENTED_EDGE ( 'NONE', *, *, #220, .T. ) ;
#160 = SECURITY_CLASSIFICATION ( '', '', #231 ) ;
#161 =( LENGTH_UNIT ( ) NAMED_UNIT ( * ) SI_UNIT ( .MILLI., .METRE. ) );
#162 = EDGE_CURVE ( 'NONE', #56, #56, #149, .T. ) ;
#163 = EDGE_LOOP ( 'NONE', ( #159 ) ) ;
#164 = CARTESIAN_POINT ( 'NONE',  ( 4.189777606611760026E-14, 2.749999999999998224, 12.00000000000000000 ) ) ;
#165 = APPROVAL_ROLE ( '' ) ;
#166 = LOCAL_TIME ( 11, 23, 10.00000000000000000, #129 ) ;
#167 = PLANE ( 'NONE',  #28 ) ;
#168 =( NAMED_UNIT ( * ) SI_UNIT ( $, .STERADIAN. ) SOLID_ANGLE_UNIT ( ) );
#169 = CARTESIAN_POINT ( 'NONE',  ( -1.282749433769087757E-30, 4.499279347985572824E-32, -3.673940397442059868E-16 ) ) ;
#170 = AXIS2_PLACEMENT_3D ( 'NONE', #132, #109, #227 ) ;
#171 = AXIS2_PLACEMENT_3D ( 'NONE', #47, #67, #148 ) ;
#172 = DIRECTION ( 'NONE',  ( -3.491481338843133355E-15, 1.224646799147353207E-16, -1.000000000000000000 ) ) ;
#173 = AXIS2_PLACEMENT_3D ( 'NONE', #3, #113, #195 ) ;
#174 = PERSON_AND_ORGANIZATION ( #83, #142 ) ;
#175 = PERSON_AND_ORGANIZATION_ROLE ( 'classification_officer' ) ;
#176 = CIRCLE ( 'NONE', #44, 3.000000000000000000 ) ;
#177 = ORIENTED_EDGE ( 'NONE', *, *, #162, .T. ) ;
#178 = CARTESIAN_POINT ( 'NONE',  ( 2.094888803305880013E-14, -7.347880794884119736E-16, 6.000000000000000000 ) ) ;
#179 = DIRECTION ( 'NONE',  ( -3.491481338843133355E-15, 1.224646799147353207E-16, -1.000000000000000000 ) ) ;
#180 = PLANE ( 'NONE',  #216 ) ;
#181 = EDGE_LOOP ( 'NONE', ( #198 ) ) ;
#182 = VERTEX_POINT ( 'NONE', #38 ) ;
#183 = ORIENTED_EDGE ( 'NONE', *, *, #90, .F. ) ;
#184 = CIRCLE ( 'NONE', #30, 2.749999999999999556 ) ;
#185 = DIRECTION ( 'NONE',  ( 0.000000000000000000, 0.000000000000000000, 1.000000000000000000 ) ) ;
#186 = APPLICATION_PROTOCOL_DEFINITION ( 'international standard', 'config_control_design', 1994, #98 ) ;
#187 = AXIS2_PLACEMENT_3D ( 'NONE', #137, #58, #42 ) ;
#188 = APPROVAL_STATUS ( 'not_yet_approved' ) ;
#189 = CALENDAR_DATE ( 2024, 12, 7 ) ;
#190 = FACE_OUTER_BOUND ( 'NONE', #74, .T. ) ;
#191 = CARTESIAN_POINT ( 'NONE',  ( 2.094888803305880013E-14, -7.347880794884119736E-16, 6.000000000000000000 ) ) ;
#192 = ORIENTED_EDGE ( 'NONE', *, *, #201, .T. ) ;
#193 = FACE_OUTER_BOUND ( 'NONE', #196, .T. ) ;
#194 =( GEOMETRIC_REPRESENTATION_CONTEXT ( 3 ) GLOBAL_UNCERTAINTY_ASSIGNED_CONTEXT ( ( #144 ) ) GLOBAL_UNIT_ASSIGNED_CONTEXT ( ( #161, #8, #168 ) ) REPRESENTATION_CONTEXT ( 'NONE', 'WORKASPACE' ) );
#195 = DIRECTION ( 'NONE',  ( 4.275831445896958607E-31, 1.000000000000000000, 1.224646799147353207E-16 ) ) ;
#196 = EDGE_LOOP ( 'NONE', ( #121 ) ) ;
#197 = PERSON_AND_ORGANIZATION ( #83, #142 ) ;
#198 = ORIENTED_EDGE ( 'NONE', *, *, #210, .T. ) ;
#199 = CC_DESIGN_APPROVAL ( #34, ( #160 ) ) ;
#200 = ADVANCED_FACE ( 'NONE', ( #104, #13 ), #35, .T. ) ;
#201 = EDGE_CURVE ( 'NONE', #182, #182, #184, .T. ) ;
#202 = FACE_OUTER_BOUND ( 'NONE', #213, .T. ) ;
#203 = COORDINATED_UNIVERSAL_TIME_OFFSET ( 1, 0, .AHEAD. ) ;
#204 = CARTESIAN_POINT ( 'NONE',  ( 1.990144363140586139E-13, -6.980486755139912911E-15, 57.00000000000000000 ) ) ;
#205 = CARTESIAN_POINT ( 'NONE',  ( -6.413747168845438786E-31, 2.249639673992786412E-32, -1.836970198721029934E-16 ) ) ;
#206 = COORDINATED_UNIVERSAL_TIME_OFFSET ( 1, 0, .AHEAD. ) ;
#207 = PERSON_AND_ORGANIZATION ( #83, #142 ) ;
#208 = DIRECTION ( 'NONE',  ( 0.000000000000000000, -1.000000000000000000, 0.000000000000000000 ) ) ;
#209 = FACE_BOUND ( 'NONE', #211, .T. ) ;
#210 = EDGE_CURVE ( 'NONE', #18, #18, #176, .T. ) ;
#211 = EDGE_LOOP ( 'NONE', ( #117 ) ) ;
#212 = CC_DESIGN_SECURITY_CLASSIFICATION ( #160, ( #75 ) ) ;
#213 = EDGE_LOOP ( 'NONE', ( #183 ) ) ;
#214 = FACE_OUTER_BOUND ( 'NONE', #115, .T. ) ;
#215 = AXIS2_PLACEMENT_3D ( 'NONE', #97, #179, #76 ) ;
#216 = AXIS2_PLACEMENT_3D ( 'NONE', #116, #234, #7 ) ;
#217 = DIRECTION ( 'NONE',  ( -3.491481338843133355E-15, 1.224646799147353207E-16, -1.000000000000000000 ) ) ;
#218 = EDGE_LOOP ( 'NONE', ( #25 ) ) ;
#219 = MANIFOLD_SOLID_BREP ( 'Corps-Déplacer/Copier1[2]', #71 ) ;
#220 = EDGE_CURVE ( 'NONE', #236, #236, #88, .T. ) ;
#221 = APPROVAL_PERSON_ORGANIZATION ( #207, #34, #103 ) ;
#222 = APPLICATION_PROTOCOL_DEFINITION ( 'international standard', 'config_control_design', 1994, #141 ) ;
#223 = DIRECTION ( 'NONE',  ( -3.491481338843133355E-15, 1.224646799147353207E-16, -1.000000000000000000 ) ) ;
#224 = PERSON_AND_ORGANIZATION ( #83, #142 ) ;
#225 = PLANE ( 'NONE',  #171 ) ;
#226 = DATE_AND_TIME ( #66, #14 ) ;
#227 = DIRECTION ( 'NONE',  ( 0.000000000000000000, 1.000000000000000000, 0.000000000000000000 ) ) ;
#228 = CC_DESIGN_PERSON_AND_ORGANIZATION_ASSIGNMENT ( #174, #156, ( #105 ) ) ;
#229 = COORDINATED_UNIVERSAL_TIME_OFFSET ( 1, 0, .AHEAD. ) ;
#230 = ADVANCED_FACE ( 'NONE', ( #6, #114 ), #5, .T. ) ;
#231 = SECURITY_CLASSIFICATION_LEVEL ( 'unclassified' ) ;
#232 = APPROVAL_PERSON_ORGANIZATION ( #197, #60, #165 ) ;
#233 = APPROVAL_DATE_TIME ( #150, #34 ) ;
#234 = DIRECTION ( 'NONE',  ( 3.491481338843133355E-15, -1.224646799147353207E-16, 1.000000000000000000 ) ) ;
#235 = ORIENTED_EDGE ( 'NONE', *, *, #46, .F. ) ;
#236 = VERTEX_POINT ( 'NONE', #164 ) ;
#237 = ORIENTED_EDGE ( 'NONE', *, *, #46, .T. ) ;
#238 = FACE_OUTER_BOUND ( 'NONE', #4, .T. ) ;
#239 = DIRECTION ( 'NONE',  ( 4.275831445896958607E-31, 1.000000000000000000, 1.224646799147353207E-16 ) ) ;
#240 = PRODUCT_RELATED_PRODUCT_CATEGORY ( 'detail', '', ( #80 ) ) ;
#241 = AXIS2_PLACEMENT_3D ( 'NONE', #61, #59, #127 ) ;
#242 = ADVANCED_FACE ( 'NONE', ( #214 ), #180, .F. ) ;
#243 = DATE_TIME_ROLE ( 'creation_date' ) ;
ENDSEC;
END-ISO-10303-21;
