ISO-10303-21;
HEADER;
FILE_DESCRIPTION (( 'STEP AP203' ),
    '1' );
FILE_NAME ('976377.step',
    '2021-11-24T07:09:54',
    ( '' ),
    ( '' ),
    'SwSTEP 2.0',
    'SolidWorks 2019',
    '' );
FILE_SCHEMA (( 'CONFIG_CONTROL_DESIGN' ));
ENDSEC;

DATA;
#1 = EDGE_LOOP ( 'NONE', ( #92 ) ) ;
#2 = APPROVAL_DATE_TIME ( #98, #216 ) ;
#3 = CARTESIAN_POINT ( 'NONE',  ( 8.795510381412775673E-15, -4.748648962153721488E-32, 2.519134295108985899 ) ) ;
#4 = COORDINATED_UNIVERSAL_TIME_OFFSET ( 1, 0, .AHEAD. ) ;
#5 = APPROVAL ( #139, 'UNSPECIFIED' ) ;
#6 = CIRCLE ( 'NONE', #181, 0.7500000000000001110 ) ;
#7 = CARTESIAN_POINT ( 'NONE',  ( 8.795510381412775673E-15, -4.748648962153721488E-32, 2.519134295108985899 ) ) ;
#8 = EDGE_CURVE ( 'NONE', #108, #108, #42, .T. ) ;
#9 = DIRECTION ( 'NONE',  ( -4.275831445896958607E-31, -1.000000000000000000, -1.224646799147353207E-16 ) ) ;
#10 = EDGE_LOOP ( 'NONE', ( #34 ) ) ;
#11 = ADVANCED_FACE ( 'NONE', ( #140, #56 ), #133, .T. ) ;
#12 = DIRECTION ( 'NONE',  ( -3.491481338843133355E-15, 1.224646799147353207E-16, -1.000000000000000000 ) ) ;
#13 = VERTEX_POINT ( 'NONE', #110 ) ;
#14 = CONICAL_SURFACE ( 'NONE', #89, 0.07499999999999999722, 0.2617993877991501295 ) ;
#15 = DIRECTION ( 'NONE',  ( -3.491481338843133355E-15, 1.224646799147353207E-16, -1.000000000000000000 ) ) ;
#16 = DIRECTION ( 'NONE',  ( 4.275831445896958607E-31, 1.000000000000000000, 1.224646799147353207E-16 ) ) ;
#17 = PRODUCT_DEFINITION_SHAPE ( 'NONE', 'NONE',  #91 ) ;
#18 = DIRECTION ( 'NONE',  ( 0.0000000000000000000, 1.000000000000000000, 0.0000000000000000000 ) ) ;
#19 = PERSON_AND_ORGANIZATION_ROLE ( 'design_owner' ) ;
#20 = CARTESIAN_POINT ( 'NONE',  ( -2.137915722948479358E-32, 7.498798913309288894E-34, -6.123233995736766344E-18 ) ) ;
#21 = APPROVAL_PERSON_ORGANIZATION ( #137, #5, #25 ) ;
#22 = CALENDAR_DATE ( 2021, 24, 11 ) ;
#23 = PLANE ( 'NONE',  #146 ) ;
#24 = CIRCLE ( 'NONE', #224, 0.7500000000000001110 ) ;
#25 = APPROVAL_ROLE ( '' ) ;
#26 = DIRECTION ( 'NONE',  ( -3.491481338843133355E-15, 1.224646799147353207E-16, -1.000000000000000000 ) ) ;
#27 = EDGE_CURVE ( 'NONE', #13, #13, #111, .T. ) ;
#28 = AXIS2_PLACEMENT_3D ( 'NONE', #177, #159, #117 ) ;
#29 = CARTESIAN_POINT ( 'NONE',  ( 1.187103655206665183E-14, 0.0000000000000000000, 3.399999999999999911 ) ) ;
#30 = FACE_OUTER_BOUND ( 'NONE', #10, .T. ) ;
#31 = CARTESIAN_POINT ( 'NONE',  ( 0.0000000000000000000, 0.0000000000000000000, 0.0000000000000000000 ) ) ;
#32 = AXIS2_PLACEMENT_3D ( 'NONE', #223, #15, #16 ) ;
#33 = EDGE_CURVE ( 'NONE', #88, #88, #24, .T. ) ;
#34 = ORIENTED_EDGE ( 'NONE', *, *, #8, .F. ) ;
#35 = DIRECTION ( 'NONE',  ( -4.275831445896959482E-31, -1.000000000000000000, -1.224646799147352961E-16 ) ) ;
#36 = APPROVAL_ROLE ( '' ) ;
#37 = AXIS2_PLACEMENT_3D ( 'NONE', #31, #201, #52 ) ;
#38 = DIRECTION ( 'NONE',  ( -3.491481338843133355E-15, 1.224646799147353207E-16, -1.000000000000000000 ) ) ;
#39 = DATE_TIME_ROLE ( 'creation_date' ) ;
#40 = DIRECTION ( 'NONE',  ( -4.275831445896958607E-31, -1.000000000000000000, -1.224646799147353207E-16 ) ) ;
#41 = EDGE_CURVE ( 'NONE', #241, #241, #63, .T. ) ;
#42 = CIRCLE ( 'NONE', #199, 0.7500000000000011102 ) ;
#43 = CALENDAR_DATE ( 2021, 24, 11 ) ;
#44 = DIRECTION ( 'NONE',  ( 0.0000000000000000000, 1.000000000000000000, 0.0000000000000000000 ) ) ;
#45 = CC_DESIGN_PERSON_AND_ORGANIZATION_ASSIGNMENT ( #211, #57, ( #91 ) ) ;
#46 = VERTEX_POINT ( 'NONE', #125 ) ;
#47 = CC_DESIGN_PERSON_AND_ORGANIZATION_ASSIGNMENT ( #54, #131, ( #168 ) ) ;
#48 =( LENGTH_UNIT ( ) NAMED_UNIT ( * ) SI_UNIT ( .MILLI., .METRE. ) );
#49 =( NAMED_UNIT ( * ) SI_UNIT ( $, .STERADIAN. ) SOLID_ANGLE_UNIT ( ) );
#50 = AXIS2_PLACEMENT_3D ( 'NONE', #29, #12, #202 ) ;
#51 = CALENDAR_DATE ( 2021, 24, 11 ) ;
#52 = DIRECTION ( 'NONE',  ( 4.275831445896958607E-31, 1.000000000000000000, 1.224646799147353207E-16 ) ) ;
#53 = DIRECTION ( 'NONE',  ( 0.0000000000000000000, 1.000000000000000000, 0.0000000000000000000 ) ) ;
#54 = PERSON_AND_ORGANIZATION ( #82, #135 ) ;
#55 = EDGE_CURVE ( 'NONE', #187, #187, #235, .T. ) ;
#56 = FACE_OUTER_BOUND ( 'NONE', #94, .T. ) ;
#57 = PERSON_AND_ORGANIZATION_ROLE ( 'creator' ) ;
#58 = CC_DESIGN_DATE_AND_TIME_ASSIGNMENT ( #215, #197, ( #103 ) ) ;
#59 = DIRECTION ( 'NONE',  ( -3.491481338843133355E-15, 1.224646799147353207E-16, -1.000000000000000000 ) ) ;
#60 = AXIS2_PLACEMENT_3D ( 'NONE', #225, #196, #116 ) ;
#61 = APPROVAL_PERSON_ORGANIZATION ( #151, #216, #36 ) ;
#62 = PERSON_AND_ORGANIZATION_ROLE ( 'classification_officer' ) ;
#63 = CIRCLE ( 'NONE', #205, 1.500000000000003331 ) ;
#64 = ORIENTED_EDGE ( 'NONE', *, *, #27, .T. ) ;
#65 = ORIENTED_EDGE ( 'NONE', *, *, #8, .T. ) ;
#66 = DIRECTION ( 'NONE',  ( 0.0000000000000000000, 1.000000000000000000, 0.0000000000000000000 ) ) ;
#67 = AXIS2_PLACEMENT_3D ( 'NONE', #242, #228, #113 ) ;
#68 = CARTESIAN_POINT ( 'NONE',  ( 1.068957861474239405E-32, 0.07499999999999999722, 3.061616997868381631E-18 ) ) ;
#69 = ADVANCED_FACE ( 'NONE', ( #208, #233 ), #14, .T. ) ;
#70 = MANIFOLD_SOLID_BREP ( 'Corps-Déplacer/Copier1[1]', #85 ) ;
#71 = FACE_BOUND ( 'NONE', #105, .T. ) ;
#72 = LOCAL_TIME ( 8, 9, 54.00000000000000000, #80 ) ;
#73 = DATE_AND_TIME ( #134, #200 ) ;
#74 = DIRECTION ( 'NONE',  ( 0.0000000000000000000, 1.000000000000000000, 0.0000000000000000000 ) ) ;
#75 = MECHANICAL_CONTEXT ( 'NONE', #239, 'mechanical' ) ;
#76 = LOCAL_TIME ( 8, 9, 54.00000000000000000, #180 ) ;
#77 = DATE_AND_TIME ( #43, #72 ) ;
#78 = APPROVAL_PERSON_ORGANIZATION ( #100, #109, #175 ) ;
#79 = ADVANCED_FACE ( 'NONE', ( #99 ), #179, .T. ) ;
#80 = COORDINATED_UNIVERSAL_TIME_OFFSET ( 1, 0, .AHEAD. ) ;
#81 = PLANE ( 'NONE',  #218 ) ;
#82 = PERSON ( 'UNSPECIFIED', 'UNSPECIFIED', 'UNSPECIFIED', ('UNSPECIFIED'), ('UNSPECIFIED'), ('UNSPECIFIED') ) ;
#83 = CC_DESIGN_APPROVAL ( #216, ( #168 ) ) ;
#84 = EDGE_LOOP ( 'NONE', ( #227 ) ) ;
#85 = CLOSED_SHELL ( 'NONE', ( #95, #184, #162, #11, #171, #136 ) ) ;
#86 = AXIS2_PLACEMENT_3D ( 'NONE', #214, #59, #210 ) ;
#87 = FACE_OUTER_BOUND ( 'NONE', #213, .T. ) ;
#88 = VERTEX_POINT ( 'NONE', #169 ) ;
#89 = AXIS2_PLACEMENT_3D ( 'NONE', #20, #130, #35 ) ;
#90 = CARTESIAN_POINT ( 'NONE',  ( 8.795510381412775673E-15, 0.7499999999999997780, 2.519134295108985899 ) ) ;
#91 = PRODUCT_DEFINITION ( 'UNKNOWN', '', #168, #191 ) ;
#92 = ORIENTED_EDGE ( 'NONE', *, *, #143, .F. ) ;
#93 = EDGE_LOOP ( 'NONE', ( #124 ) ) ;
#94 = EDGE_LOOP ( 'NONE', ( #157 ) ) ;
#95 = ADVANCED_FACE ( 'NONE', ( #118 ), #23, .F. ) ;
#96 = APPROVAL_DATE_TIME ( #73, #109 ) ;
#97 = PRODUCT ( '976377', '976377', '', ( #75 ) ) ;
#98 = DATE_AND_TIME ( #51, #76 ) ;
#99 = FACE_OUTER_BOUND ( 'NONE', #1, .T. ) ;
#100 = PERSON_AND_ORGANIZATION ( #82, #135 ) ;
#101 = CARTESIAN_POINT ( 'NONE',  ( 1.316288464743861212E-13, -4.616918432785521081E-15, 37.69999999999999574 ) ) ;
#102 = AXIS2_PLACEMENT_3D ( 'NONE', #3, #138, #40 ) ;
#103 = SECURITY_CLASSIFICATION ( '', '', #209 ) ;
#104 = PRODUCT_RELATED_PRODUCT_CATEGORY ( 'detail', '', ( #97 ) ) ;
#105 = EDGE_LOOP ( 'NONE', ( #64 ) ) ;
#106 = ADVANCED_FACE ( 'NONE', ( #219 ), #81, .F. ) ;
#107 = CYLINDRICAL_SURFACE ( 'NONE', #37, 0.7500000000000006661 ) ;
#108 = VERTEX_POINT ( 'NONE', #207 ) ;
#109 = APPROVAL ( #231, 'UNSPECIFIED' ) ;
#110 = CARTESIAN_POINT ( 'NONE',  ( 1.326762908760390423E-13, 1.199999999999998845, 38.00000000000000000 ) ) ;
#111 = CIRCLE ( 'NONE', #60, 1.200000000000003286 ) ;
#112 = ORIENTED_EDGE ( 'NONE', *, *, #41, .F. ) ;
#113 = DIRECTION ( 'NONE',  ( 1.000000000000000000, 0.0000000000000000000, 0.0000000000000000000 ) ) ;
#114 = ORIENTED_EDGE ( 'NONE', *, *, #55, .F. ) ;
#115 = PERSON_AND_ORGANIZATION ( #82, #135 ) ;
#116 = DIRECTION ( 'NONE',  ( 0.0000000000000000000, 1.000000000000000000, 0.0000000000000000000 ) ) ;
#117 = DIRECTION ( 'NONE',  ( 4.275831445896958607E-31, 1.000000000000000000, 1.224646799147352961E-16 ) ) ;
#118 = FACE_OUTER_BOUND ( 'NONE', #212, .T. ) ;
#119 = SHAPE_DEFINITION_REPRESENTATION ( #17, #186 ) ;
#120 = CARTESIAN_POINT ( 'NONE',  ( 1.187103655206665183E-14, -4.163799117101000559E-16, 3.399999999999999911 ) ) ;
#121 = CC_DESIGN_APPROVAL ( #5, ( #103 ) ) ;
#122 = EDGE_CURVE ( 'NONE', #46, #46, #158, .T. ) ;
#123 = CC_DESIGN_PERSON_AND_ORGANIZATION_ASSIGNMENT ( #154, #19, ( #97 ) ) ;
#124 = ORIENTED_EDGE ( 'NONE', *, *, #27, .F. ) ;
#125 = CARTESIAN_POINT ( 'NONE',  ( 2.367900757518973625E-14, 1.499999999999996225, 6.781937314617162649 ) ) ;
#126 = DIRECTION ( 'NONE',  ( -3.491481338843133355E-15, 1.224646799147353207E-16, -1.000000000000000000 ) ) ;
#127 =( NAMED_UNIT ( * ) PLANE_ANGLE_UNIT ( ) SI_UNIT ( $, .RADIAN. ) );
#128 = AXIS2_PLACEMENT_3D ( 'NONE', #142, #217, #44 ) ;
#129 = PERSON_AND_ORGANIZATION ( #82, #135 ) ;
#130 = DIRECTION ( 'NONE',  ( 3.491481338843133355E-15, -1.224646799147353207E-16, 1.000000000000000000 ) ) ;
#131 = PERSON_AND_ORGANIZATION_ROLE ( 'design_supplier' ) ;
#132 = APPLICATION_CONTEXT ( 'configuration controlled 3d designs of mechanical parts and assemblies' ) ;
#133 = CYLINDRICAL_SURFACE ( 'NONE', #86, 1.500000000000000000 ) ;
#134 = CALENDAR_DATE ( 2021, 24, 11 ) ;
#135 = ORGANIZATION ( 'UNSPECIFIED', 'UNSPECIFIED', '' ) ;
#136 = ADVANCED_FACE ( 'NONE', ( #165 ), #147, .F. ) ;
#137 = PERSON_AND_ORGANIZATION ( #82, #135 ) ;
#138 = DIRECTION ( 'NONE',  ( 3.491481338843133355E-15, -1.224646799147353207E-16, 1.000000000000000000 ) ) ;
#139 = APPROVAL_STATUS ( 'not_yet_approved' ) ;
#140 = FACE_OUTER_BOUND ( 'NONE', #230, .T. ) ;
#141 = COORDINATED_UNIVERSAL_TIME_OFFSET ( 1, 0, .AHEAD. ) ;
#142 = CARTESIAN_POINT ( 'NONE',  ( 2.367900757518973625E-14, -8.305477824363904586E-16, 6.781937314617162649 ) ) ;
#143 = EDGE_CURVE ( 'NONE', #204, #204, #6, .T. ) ;
#144 = DIRECTION ( 'NONE',  ( -4.275831445896958607E-31, -1.000000000000000000, -1.224646799147353207E-16 ) ) ;
#145 = DIRECTION ( 'NONE',  ( 3.491481338843133355E-15, -1.224646799147353207E-16, 1.000000000000000000 ) ) ;
#146 = AXIS2_PLACEMENT_3D ( 'NONE', #7, #164, #9 ) ;
#147 = PLANE ( 'NONE',  #32 ) ;
#148 = CC_DESIGN_PERSON_AND_ORGANIZATION_ASSIGNMENT ( #129, #206, ( #168 ) ) ;
#149 = FACE_OUTER_BOUND ( 'NONE', #236, .T. ) ;
#150 = FACE_OUTER_BOUND ( 'NONE', #160, .T. ) ;
#151 = PERSON_AND_ORGANIZATION ( #82, #135 ) ;
#152 = CLOSED_SHELL ( 'NONE', ( #106, #69, #79 ) ) ;
#153 = CARTESIAN_POINT ( 'NONE',  ( 8.795510381412775673E-15, -3.085049751127543794E-16, 2.519134295108985899 ) ) ;
#154 = PERSON_AND_ORGANIZATION ( #82, #135 ) ;
#155 = APPROVAL_STATUS ( 'not_yet_approved' ) ;
#156 = MANIFOLD_SOLID_BREP ( 'Corps-Déplacer/Copier1[2]', #152 ) ;
#157 = ORIENTED_EDGE ( 'NONE', *, *, #41, .T. ) ;
#158 = CIRCLE ( 'NONE', #128, 1.499999999999996891 ) ;
#159 = DIRECTION ( 'NONE',  ( -3.491481338843133355E-15, 1.224646799147353207E-16, -1.000000000000000000 ) ) ;
#160 = EDGE_LOOP ( 'NONE', ( #183 ) ) ;
#161 = LOCAL_TIME ( 8, 9, 54.00000000000000000, #141 ) ;
#162 = ADVANCED_FACE ( 'NONE', ( #150, #30 ), #166, .F. ) ;
#163 = CARTESIAN_POINT ( 'NONE',  ( -1.068957861474239679E-32, 3.749399456654644447E-34, -3.061616997868383172E-18 ) ) ;
#164 = DIRECTION ( 'NONE',  ( 3.491481338843133355E-15, -1.224646799147353207E-16, 1.000000000000000000 ) ) ;
#165 = FACE_OUTER_BOUND ( 'NONE', #93, .T. ) ;
#166 = TOROIDAL_SURFACE ( 'NONE', #50, 8.750000000000000000, 8.000000000000000000 ) ;
#167 = EDGE_LOOP ( 'NONE', ( #229 ) ) ;
#168 = PRODUCT_DEFINITION_FORMATION_WITH_SPECIFIED_SOURCE ( 'ANY', '', #97, .NOT_KNOWN. ) ;
#169 = CARTESIAN_POINT ( 'NONE',  ( 8.795510381412775673E-15, 0.7499999999999997780, 2.519134295108985899 ) ) ;
#170 = FACE_OUTER_BOUND ( 'NONE', #203, .T. ) ;
#171 = ADVANCED_FACE ( 'NONE', ( #87, #71 ), #195, .T. ) ;
#172 = ORIENTED_EDGE ( 'NONE', *, *, #33, .T. ) ;
#173 = APPLICATION_PROTOCOL_DEFINITION ( 'international standard', 'config_control_design', 1994, #239 ) ;
#174 = EDGE_LOOP ( 'NONE', ( #114 ) ) ;
#175 = APPROVAL_ROLE ( '' ) ;
#176 = UNCERTAINTY_MEASURE_WITH_UNIT (LENGTH_MEASURE( 1.000000000000000082E-05 ), #48, 'distance_accuracy_value', 'NONE');
#177 = CARTESIAN_POINT ( 'NONE',  ( -2.137915722948479358E-32, 7.498798913309288894E-34, -6.123233995736766344E-18 ) ) ;
#178 = APPLICATION_PROTOCOL_DEFINITION ( 'international standard', 'config_control_design', 1994, #132 ) ;
#179 = PLANE ( 'NONE',  #102 ) ;
#180 = COORDINATED_UNIVERSAL_TIME_OFFSET ( 1, 0, .AHEAD. ) ;
#181 = AXIS2_PLACEMENT_3D ( 'NONE', #237, #126, #221 ) ;
#182 = ORIENTED_EDGE ( 'NONE', *, *, #33, .F. ) ;
#183 = ORIENTED_EDGE ( 'NONE', *, *, #122, .T. ) ;
#184 = ADVANCED_FACE ( 'NONE', ( #170, #149 ), #107, .T. ) ;
#185 = CARTESIAN_POINT ( 'NONE',  ( 1.326762908760390423E-13, -4.653657836759941941E-15, 38.00000000000000000 ) ) ;
#186 = ADVANCED_BREP_SHAPE_REPRESENTATION ( '976377', ( #70, #156, #67 ), #188 ) ;
#187 = VERTEX_POINT ( 'NONE', #68 ) ;
#188 =( GEOMETRIC_REPRESENTATION_CONTEXT ( 3 ) GLOBAL_UNCERTAINTY_ASSIGNED_CONTEXT ( ( #176 ) ) GLOBAL_UNIT_ASSIGNED_CONTEXT ( ( #48, #127, #49 ) ) REPRESENTATION_CONTEXT ( 'NONE', 'WORKASPACE' ) );
#189 = CC_DESIGN_DATE_AND_TIME_ASSIGNMENT ( #243, #39, ( #91 ) ) ;
#190 = DIRECTION ( 'NONE',  ( -3.491481338843133355E-15, 1.224646799147353207E-16, -1.000000000000000000 ) ) ;
#191 = DESIGN_CONTEXT ( 'detailed design', #132, 'design' ) ;
#192 = CC_DESIGN_SECURITY_CLASSIFICATION ( #103, ( #168 ) ) ;
#193 = APPROVAL_DATE_TIME ( #77, #5 ) ;
#194 = ORIENTED_EDGE ( 'NONE', *, *, #122, .F. ) ;
#195 = CONICAL_SURFACE ( 'NONE', #232, 1.200000000000003286, 0.7853981633974453924 ) ;
#196 = DIRECTION ( 'NONE',  ( -3.491481338843133355E-15, 1.224646799147353207E-16, -1.000000000000000000 ) ) ;
#197 = DATE_TIME_ROLE ( 'classification_date' ) ;
#198 = CC_DESIGN_PERSON_AND_ORGANIZATION_ASSIGNMENT ( #115, #62, ( #103 ) ) ;
#199 = AXIS2_PLACEMENT_3D ( 'NONE', #120, #38, #74 ) ;
#200 = LOCAL_TIME ( 8, 9, 54.00000000000000000, #240 ) ;
#201 = DIRECTION ( 'NONE',  ( -3.491481338843133355E-15, 1.224646799147353207E-16, -1.000000000000000000 ) ) ;
#202 = DIRECTION ( 'NONE',  ( 4.355100981429076768E-31, 1.000000000000000000, 1.224646799147353207E-16 ) ) ;
#203 = EDGE_LOOP ( 'NONE', ( #65 ) ) ;
#204 = VERTEX_POINT ( 'NONE', #90 ) ;
#205 = AXIS2_PLACEMENT_3D ( 'NONE', #101, #26, #53 ) ;
#206 = PERSON_AND_ORGANIZATION_ROLE ( 'creator' ) ;
#207 = CARTESIAN_POINT ( 'NONE',  ( 1.187103655206665183E-14, 0.7500000000000006661, 3.399999999999999911 ) ) ;
#208 = FACE_OUTER_BOUND ( 'NONE', #167, .T. ) ;
#209 = SECURITY_CLASSIFICATION_LEVEL ( 'unclassified' ) ;
#210 = DIRECTION ( 'NONE',  ( 4.275831445896959482E-31, 1.000000000000000000, 1.224646799147353207E-16 ) ) ;
#211 = PERSON_AND_ORGANIZATION ( #82, #135 ) ;
#212 = EDGE_LOOP ( 'NONE', ( #172 ) ) ;
#213 = EDGE_LOOP ( 'NONE', ( #112 ) ) ;
#214 = CARTESIAN_POINT ( 'NONE',  ( 0.0000000000000000000, 0.0000000000000000000, 0.0000000000000000000 ) ) ;
#215 = DATE_AND_TIME ( #22, #161 ) ;
#216 = APPROVAL ( #155, 'UNSPECIFIED' ) ;
#217 = DIRECTION ( 'NONE',  ( -3.491481338843133355E-15, 1.224646799147353207E-16, -1.000000000000000000 ) ) ;
#218 = AXIS2_PLACEMENT_3D ( 'NONE', #163, #145, #144 ) ;
#219 = FACE_OUTER_BOUND ( 'NONE', #84, .T. ) ;
#220 = CARTESIAN_POINT ( 'NONE',  ( 1.316288464743861212E-13, 1.499999999999998668, 37.69999999999999574 ) ) ;
#221 = DIRECTION ( 'NONE',  ( 0.0000000000000000000, 1.000000000000000000, 0.0000000000000000000 ) ) ;
#222 = DIRECTION ( 'NONE',  ( -3.491481338843133355E-15, 1.224646799147353207E-16, -1.000000000000000000 ) ) ;
#223 = CARTESIAN_POINT ( 'NONE',  ( 1.326762908760390423E-13, 8.998558695971103225E-33, 38.00000000000000000 ) ) ;
#224 = AXIS2_PLACEMENT_3D ( 'NONE', #153, #190, #18 ) ;
#225 = CARTESIAN_POINT ( 'NONE',  ( 1.326762908760390423E-13, -4.653657836759941941E-15, 38.00000000000000000 ) ) ;
#226 = CALENDAR_DATE ( 2021, 24, 11 ) ;
#227 = ORIENTED_EDGE ( 'NONE', *, *, #55, .T. ) ;
#228 = DIRECTION ( 'NONE',  ( 0.0000000000000000000, 0.0000000000000000000, 1.000000000000000000 ) ) ;
#229 = ORIENTED_EDGE ( 'NONE', *, *, #143, .T. ) ;
#230 = EDGE_LOOP ( 'NONE', ( #194 ) ) ;
#231 = APPROVAL_STATUS ( 'not_yet_approved' ) ;
#232 = AXIS2_PLACEMENT_3D ( 'NONE', #185, #222, #66 ) ;
#233 = FACE_BOUND ( 'NONE', #174, .T. ) ;
#234 = CC_DESIGN_APPROVAL ( #109, ( #91 ) ) ;
#235 = CIRCLE ( 'NONE', #28, 0.07499999999999999722 ) ;
#236 = EDGE_LOOP ( 'NONE', ( #182 ) ) ;
#237 = CARTESIAN_POINT ( 'NONE',  ( 8.795510381412775673E-15, -3.085049751127543794E-16, 2.519134295108985899 ) ) ;
#238 = LOCAL_TIME ( 8, 9, 54.00000000000000000, #4 ) ;
#239 = APPLICATION_CONTEXT ( 'configuration controlled 3d designs of mechanical parts and assemblies' ) ;
#240 = COORDINATED_UNIVERSAL_TIME_OFFSET ( 1, 0, .AHEAD. ) ;
#241 = VERTEX_POINT ( 'NONE', #220 ) ;
#242 = CARTESIAN_POINT ( 'NONE',  ( 0.0000000000000000000, 0.0000000000000000000, 0.0000000000000000000 ) ) ;
#243 = DATE_AND_TIME ( #226, #238 ) ;
ENDSEC;
END-ISO-10303-21;
