ISO-10303-21;
HEADER;
FILE_DESCRIPTION (( 'STEP AP203' ),
    '1' );
FILE_NAME ('976376.step',
    '2021-11-24T07:09:53',
    ( '' ),
    ( '' ),
    'SwSTEP 2.0',
    'SolidWorks 2019',
    '' );
FILE_SCHEMA (( 'CONFIG_CONTROL_DESIGN' ));
ENDSEC;

DATA;
#1 = EDGE_LOOP ( 'NONE', ( #43 ) ) ;
#2 = DATE_AND_TIME ( #228, #88 ) ;
#3 = DATE_TIME_ROLE ( 'creation_date' ) ;
#4 = DIRECTION ( 'NONE',  ( 0.0000000000000000000, 1.000000000000000000, 0.0000000000000000000 ) ) ;
#5 = EDGE_CURVE ( 'NONE', #131, #131, #238, .T. ) ;
#6 = FACE_OUTER_BOUND ( 'NONE', #208, .T. ) ;
#7 = AXIS2_PLACEMENT_3D ( 'NONE', #68, #123, #108 ) ;
#8 = DIRECTION ( 'NONE',  ( -4.275831445896958607E-31, -1.000000000000000000, -1.224646799147353207E-16 ) ) ;
#9 = FACE_OUTER_BOUND ( 'NONE', #209, .T. ) ;
#10 = CYLINDRICAL_SURFACE ( 'NONE', #243, 1.500000000000000000 ) ;
#11 =( GEOMETRIC_REPRESENTATION_CONTEXT ( 3 ) GLOBAL_UNCERTAINTY_ASSIGNED_CONTEXT ( ( #144 ) ) GLOBAL_UNIT_ASSIGNED_CONTEXT ( ( #207, #157, #30 ) ) REPRESENTATION_CONTEXT ( 'NONE', 'WORKASPACE' ) );
#12 = CARTESIAN_POINT ( 'NONE',  ( 0.0000000000000000000, 0.0000000000000000000, 0.0000000000000000000 ) ) ;
#13 = DIRECTION ( 'NONE',  ( 4.275831445896959482E-31, 1.000000000000000000, 1.224646799147353207E-16 ) ) ;
#14 = DIRECTION ( 'NONE',  ( 0.0000000000000000000, 0.0000000000000000000, 1.000000000000000000 ) ) ;
#15 = LOCAL_TIME ( 8, 9, 53.00000000000000000, #233 ) ;
#16 = ORIENTED_EDGE ( 'NONE', *, *, #150, .F. ) ;
#17 = ORIENTED_EDGE ( 'NONE', *, *, #126, .T. ) ;
#18 = CIRCLE ( 'NONE', #177, 0.05000000000000000278 ) ;
#19 = APPROVAL_STATUS ( 'not_yet_approved' ) ;
#20 = PERSON_AND_ORGANIZATION_ROLE ( 'design_supplier' ) ;
#21 = ADVANCED_FACE ( 'NONE', ( #6, #87 ), #196, .T. ) ;
#22 = APPLICATION_CONTEXT ( 'configuration controlled 3d designs of mechanical parts and assemblies' ) ;
#23 = COORDINATED_UNIVERSAL_TIME_OFFSET ( 1, 0, .AHEAD. ) ;
#24 = DIRECTION ( 'NONE',  ( 3.491481338843133355E-15, -1.224646799147353207E-16, 1.000000000000000000 ) ) ;
#25 = CC_DESIGN_PERSON_AND_ORGANIZATION_ASSIGNMENT ( #121, #211, ( #115 ) ) ;
#26 = PERSON_AND_ORGANIZATION ( #136, #163 ) ;
#27 = DIRECTION ( 'NONE',  ( -3.491481338843133355E-15, 1.224646799147353207E-16, -1.000000000000000000 ) ) ;
#28 = APPLICATION_CONTEXT ( 'configuration controlled 3d designs of mechanical parts and assemblies' ) ;
#29 = DESIGN_CONTEXT ( 'detailed design', #22, 'design' ) ;
#30 =( NAMED_UNIT ( * ) SI_UNIT ( $, .STERADIAN. ) SOLID_ANGLE_UNIT ( ) );
#31 = AXIS2_PLACEMENT_3D ( 'NONE', #180, #14, #100 ) ;
#32 = VERTEX_POINT ( 'NONE', #160 ) ;
#33 = EDGE_CURVE ( 'NONE', #239, #239, #75, .T. ) ;
#34 = CYLINDRICAL_SURFACE ( 'NONE', #105, 0.7500000000000006661 ) ;
#35 = CC_DESIGN_APPROVAL ( #154, ( #169 ) ) ;
#36 = ORIENTED_EDGE ( 'NONE', *, *, #56, .T. ) ;
#37 = EDGE_LOOP ( 'NONE', ( #82 ) ) ;
#38 = PRODUCT_DEFINITION_SHAPE ( 'NONE', 'NONE',  #165 ) ;
#39 = PERSON_AND_ORGANIZATION ( #136, #163 ) ;
#40 = ORIENTED_EDGE ( 'NONE', *, *, #150, .T. ) ;
#41 = CIRCLE ( 'NONE', #95, 0.7500000000000001110 ) ;
#42 = PERSON_AND_ORGANIZATION_ROLE ( 'design_owner' ) ;
#43 = ORIENTED_EDGE ( 'NONE', *, *, #73, .F. ) ;
#44 = ADVANCED_FACE ( 'NONE', ( #192 ), #130, .F. ) ;
#45 = APPROVAL_STATUS ( 'not_yet_approved' ) ;
#46 = DIRECTION ( 'NONE',  ( 0.0000000000000000000, 1.000000000000000000, 0.0000000000000000000 ) ) ;
#47 = DIRECTION ( 'NONE',  ( 0.0000000000000000000, 1.000000000000000000, 0.0000000000000000000 ) ) ;
#48 = AXIS2_PLACEMENT_3D ( 'NONE', #49, #153, #236 ) ;
#49 = CARTESIAN_POINT ( 'NONE',  ( 9.121270025168802824E-15, 5.624099184981962608E-33, 2.612435565298207418 ) ) ;
#50 = APPROVAL_PERSON_ORGANIZATION ( #151, #154, #166 ) ;
#51 = DIRECTION ( 'NONE',  ( 4.355100981429076768E-31, 1.000000000000000000, 1.224646799147353207E-16 ) ) ;
#52 = DIRECTION ( 'NONE',  ( -3.491481338843133355E-15, 1.224646799147353207E-16, -1.000000000000000000 ) ) ;
#53 = DIRECTION ( 'NONE',  ( -3.491481338843133355E-15, 1.224646799147353207E-16, -1.000000000000000000 ) ) ;
#54 = LOCAL_TIME ( 8, 9, 53.00000000000000000, #62 ) ;
#55 = CARTESIAN_POINT ( 'NONE',  ( 1.326762908760390423E-13, 8.998558695971103225E-33, 38.00000000000000000 ) ) ;
#56 = EDGE_CURVE ( 'NONE', #183, #183, #18, .T. ) ;
#57 = EDGE_LOOP ( 'NONE', ( #227 ) ) ;
#58 = AXIS2_PLACEMENT_3D ( 'NONE', #181, #94, #51 ) ;
#59 = ORIENTED_EDGE ( 'NONE', *, *, #33, .F. ) ;
#60 = CALENDAR_DATE ( 2021, 24, 11 ) ;
#61 = ORIENTED_EDGE ( 'NONE', *, *, #101, .F. ) ;
#62 = COORDINATED_UNIVERSAL_TIME_OFFSET ( 1, 0, .AHEAD. ) ;
#63 = MANIFOLD_SOLID_BREP ( 'Corps-Déplacer/Copier1[1]', #219 ) ;
#64 = CALENDAR_DATE ( 2021, 24, 11 ) ;
#65 = DIRECTION ( 'NONE',  ( -4.275831445896958607E-31, -1.000000000000000000, -1.224646799147353207E-16 ) ) ;
#66 = DATE_AND_TIME ( #107, #129 ) ;
#67 = PLANE ( 'NONE',  #48 ) ;
#68 = CARTESIAN_POINT ( 'NONE',  ( 2.367900757518973625E-14, -8.305477824363904586E-16, 6.781937314617162649 ) ) ;
#69 = FACE_OUTER_BOUND ( 'NONE', #162, .T. ) ;
#70 = CARTESIAN_POINT ( 'NONE',  ( 9.121270025168802824E-15, 5.624099184981962608E-33, 2.612435565298207418 ) ) ;
#71 = VERTEX_POINT ( 'NONE', #182 ) ;
#72 = MANIFOLD_SOLID_BREP ( 'Corps-Déplacer/Copier1[2]', #79 ) ;
#73 = EDGE_CURVE ( 'NONE', #32, #32, #93, .T. ) ;
#74 = CARTESIAN_POINT ( 'NONE',  ( 1.326762908760390423E-13, 1.199999999999998845, 38.00000000000000000 ) ) ;
#75 = CIRCLE ( 'NONE', #215, 0.7500000000000001110 ) ;
#76 = ORIENTED_EDGE ( 'NONE', *, *, #56, .F. ) ;
#77 = ADVANCED_FACE ( 'NONE', ( #179 ), #111, .F. ) ;
#78 = AXIS2_PLACEMENT_3D ( 'NONE', #171, #148, #152 ) ;
#79 = CLOSED_SHELL ( 'NONE', ( #77, #83, #128 ) ) ;
#80 = PRODUCT ( '976376', '976376', '', ( #222 ) ) ;
#81 = COORDINATED_UNIVERSAL_TIME_OFFSET ( 1, 0, .AHEAD. ) ;
#82 = ORIENTED_EDGE ( 'NONE', *, *, #33, .T. ) ;
#83 = ADVANCED_FACE ( 'NONE', ( #92, #149 ), #235, .T. ) ;
#84 = PERSON_AND_ORGANIZATION_ROLE ( 'creator' ) ;
#85 = CC_DESIGN_PERSON_AND_ORGANIZATION_ASSIGNMENT ( #203, #42, ( #80 ) ) ;
#86 = APPROVAL_DATE_TIME ( #2, #194 ) ;
#87 = FACE_BOUND ( 'NONE', #143, .T. ) ;
#88 = LOCAL_TIME ( 8, 9, 53.00000000000000000, #81 ) ;
#89 = PERSON_AND_ORGANIZATION_ROLE ( 'creator' ) ;
#90 = DIRECTION ( 'NONE',  ( -3.491481338843133355E-15, 1.224646799147353207E-16, -1.000000000000000000 ) ) ;
#91 = PRODUCT_RELATED_PRODUCT_CATEGORY ( 'detail', '', ( #80 ) ) ;
#92 = FACE_OUTER_BOUND ( 'NONE', #37, .T. ) ;
#93 = CIRCLE ( 'NONE', #159, 0.7500000000000011102 ) ;
#94 = DIRECTION ( 'NONE',  ( -3.491481338843133355E-15, 1.224646799147353207E-16, -1.000000000000000000 ) ) ;
#95 = AXIS2_PLACEMENT_3D ( 'NONE', #190, #27, #4 ) ;
#96 = PLANE ( 'NONE',  #125 ) ;
#97 = FACE_OUTER_BOUND ( 'NONE', #225, .T. ) ;
#98 = DIRECTION ( 'NONE',  ( -3.491481338843133355E-15, 1.224646799147353207E-16, -1.000000000000000000 ) ) ;
#99 = CC_DESIGN_APPROVAL ( #194, ( #115 ) ) ;
#100 = DIRECTION ( 'NONE',  ( 1.000000000000000000, 0.0000000000000000000, 0.0000000000000000000 ) ) ;
#101 = EDGE_CURVE ( 'NONE', #138, #138, #187, .T. ) ;
#102 = CC_DESIGN_PERSON_AND_ORGANIZATION_ASSIGNMENT ( #39, #89, ( #165 ) ) ;
#103 = ORIENTED_EDGE ( 'NONE', *, *, #5, .T. ) ;
#104 = SHAPE_DEFINITION_REPRESENTATION ( #38, #230 ) ;
#105 = AXIS2_PLACEMENT_3D ( 'NONE', #12, #98, #114 ) ;
#106 = DATE_TIME_ROLE ( 'classification_date' ) ;
#107 = CALENDAR_DATE ( 2021, 24, 11 ) ;
#108 = DIRECTION ( 'NONE',  ( 0.0000000000000000000, 1.000000000000000000, 0.0000000000000000000 ) ) ;
#109 = CC_DESIGN_DATE_AND_TIME_ASSIGNMENT ( #147, #3, ( #165 ) ) ;
#110 = CARTESIAN_POINT ( 'NONE',  ( -8.551662891793918527E-33, 2.999519565323715729E-34, -2.449293598294706769E-18 ) ) ;
#111 = PLANE ( 'NONE',  #223 ) ;
#112 = DIRECTION ( 'NONE',  ( 4.275831445896958607E-31, 1.000000000000000000, 1.224646799147353207E-16 ) ) ;
#113 = APPROVAL_PERSON_ORGANIZATION ( #26, #194, #188 ) ;
#114 = DIRECTION ( 'NONE',  ( 4.275831445896958607E-31, 1.000000000000000000, 1.224646799147353207E-16 ) ) ;
#115 = SECURITY_CLASSIFICATION ( '', '', #213 ) ;
#116 = AXIS2_PLACEMENT_3D ( 'NONE', #70, #205, #8 ) ;
#117 = CC_DESIGN_PERSON_AND_ORGANIZATION_ASSIGNMENT ( #210, #20, ( #169 ) ) ;
#118 = DIRECTION ( 'NONE',  ( 0.0000000000000000000, 1.000000000000000000, 0.0000000000000000000 ) ) ;
#119 = FACE_OUTER_BOUND ( 'NONE', #140, .T. ) ;
#120 = EDGE_LOOP ( 'NONE', ( #36 ) ) ;
#121 = PERSON_AND_ORGANIZATION ( #136, #163 ) ;
#122 = EDGE_LOOP ( 'NONE', ( #17 ) ) ;
#123 = DIRECTION ( 'NONE',  ( -3.491481338843133355E-15, 1.224646799147353207E-16, -1.000000000000000000 ) ) ;
#124 = CALENDAR_DATE ( 2021, 24, 11 ) ;
#125 = AXIS2_PLACEMENT_3D ( 'NONE', #55, #53, #197 ) ;
#126 = EDGE_CURVE ( 'NONE', #71, #71, #41, .T. ) ;
#127 = DIRECTION ( 'NONE',  ( -3.491481338843133355E-15, 1.224646799147353207E-16, -1.000000000000000000 ) ) ;
#128 = ADVANCED_FACE ( 'NONE', ( #173 ), #67, .T. ) ;
#129 = LOCAL_TIME ( 8, 9, 53.00000000000000000, #23 ) ;
#130 = PLANE ( 'NONE',  #116 ) ;
#131 = VERTEX_POINT ( 'NONE', #74 ) ;
#132 = FACE_OUTER_BOUND ( 'NONE', #57, .T. ) ;
#133 = APPROVAL ( #45, 'UNSPECIFIED' ) ;
#134 = CARTESIAN_POINT ( 'NONE',  ( 9.121270025168804402E-15, 0.7499999999999997780, 2.612435565298207862 ) ) ;
#135 = APPROVAL_PERSON_ORGANIZATION ( #189, #133, #232 ) ;
#136 = PERSON ( 'UNSPECIFIED', 'UNSPECIFIED', 'UNSPECIFIED', ('UNSPECIFIED'), ('UNSPECIFIED'), ('UNSPECIFIED') ) ;
#137 = FACE_OUTER_BOUND ( 'NONE', #1, .T. ) ;
#138 = VERTEX_POINT ( 'NONE', #240 ) ;
#139 = ORIENTED_EDGE ( 'NONE', *, *, #73, .T. ) ;
#140 = EDGE_LOOP ( 'NONE', ( #40 ) ) ;
#141 = ADVANCED_FACE ( 'NONE', ( #69, #221 ), #34, .T. ) ;
#142 = DATE_AND_TIME ( #124, #218 ) ;
#143 = EDGE_LOOP ( 'NONE', ( #103 ) ) ;
#144 = UNCERTAINTY_MEASURE_WITH_UNIT (LENGTH_MEASURE( 1.000000000000000082E-05 ), #207, 'distance_accuracy_value', 'NONE');
#145 = APPROVAL_DATE_TIME ( #66, #154 ) ;
#146 = TOROIDAL_SURFACE ( 'NONE', #58, 8.750000000000000000, 8.000000000000000000 ) ;
#147 = DATE_AND_TIME ( #64, #15 ) ;
#148 = DIRECTION ( 'NONE',  ( -3.491481338843133355E-15, 1.224646799147353207E-16, -1.000000000000000000 ) ) ;
#149 = FACE_BOUND ( 'NONE', #164, .T. ) ;
#150 = EDGE_CURVE ( 'NONE', #242, #242, #226, .T. ) ;
#151 = PERSON_AND_ORGANIZATION ( #136, #163 ) ;
#152 = DIRECTION ( 'NONE',  ( 0.0000000000000000000, 1.000000000000000000, 0.0000000000000000000 ) ) ;
#153 = DIRECTION ( 'NONE',  ( 3.491481338843133355E-15, -1.224646799147353207E-16, 1.000000000000000000 ) ) ;
#154 = APPROVAL ( #231, 'UNSPECIFIED' ) ;
#155 = DIRECTION ( 'NONE',  ( -3.491481338843133355E-15, 1.224646799147353207E-16, -1.000000000000000000 ) ) ;
#156 = ADVANCED_FACE ( 'NONE', ( #9, #119 ), #10, .T. ) ;
#157 =( NAMED_UNIT ( * ) PLANE_ANGLE_UNIT ( ) SI_UNIT ( $, .RADIAN. ) );
#158 = CARTESIAN_POINT ( 'NONE',  ( 4.275831445896955842E-33, 0.05000000000000000278, 1.224646799147352614E-18 ) ) ;
#159 = AXIS2_PLACEMENT_3D ( 'NONE', #193, #127, #47 ) ;
#160 = CARTESIAN_POINT ( 'NONE',  ( 1.187103655206665183E-14, 0.7500000000000006661, 3.399999999999999911 ) ) ;
#161 = EDGE_LOOP ( 'NONE', ( #186 ) ) ;
#162 = EDGE_LOOP ( 'NONE', ( #139 ) ) ;
#163 = ORGANIZATION ( 'UNSPECIFIED', 'UNSPECIFIED', '' ) ;
#164 = EDGE_LOOP ( 'NONE', ( #76 ) ) ;
#165 = PRODUCT_DEFINITION ( 'UNKNOWN', '', #169, #29 ) ;
#166 = APPROVAL_ROLE ( '' ) ;
#167 = ADVANCED_FACE ( 'NONE', ( #132, #137 ), #146, .F. ) ;
#168 = APPLICATION_PROTOCOL_DEFINITION ( 'international standard', 'config_control_design', 1994, #22 ) ;
#169 = PRODUCT_DEFINITION_FORMATION_WITH_SPECIFIED_SOURCE ( 'ANY', '', #80, .NOT_KNOWN. ) ;
#170 = DATE_AND_TIME ( #60, #54 ) ;
#171 = CARTESIAN_POINT ( 'NONE',  ( 1.326762908760390423E-13, -4.653657836759941941E-15, 38.00000000000000000 ) ) ;
#172 = CC_DESIGN_DATE_AND_TIME_ASSIGNMENT ( #142, #106, ( #115 ) ) ;
#173 = FACE_OUTER_BOUND ( 'NONE', #229, .T. ) ;
#174 = CARTESIAN_POINT ( 'NONE',  ( 9.121270025168804402E-15, -3.199310853021156381E-16, 2.612435565298207862 ) ) ;
#175 = DIRECTION ( 'NONE',  ( 3.491481338843133355E-15, -1.224646799147353207E-16, 1.000000000000000000 ) ) ;
#176 = DIRECTION ( 'NONE',  ( -3.491481338843133355E-15, 1.224646799147353207E-16, -1.000000000000000000 ) ) ;
#177 = AXIS2_PLACEMENT_3D ( 'NONE', #178, #90, #112 ) ;
#178 = CARTESIAN_POINT ( 'NONE',  ( -1.710332578358783705E-32, 5.999039130647431458E-34, -4.898587196589413537E-18 ) ) ;
#179 = FACE_OUTER_BOUND ( 'NONE', #120, .T. ) ;
#180 = CARTESIAN_POINT ( 'NONE',  ( 0.0000000000000000000, 0.0000000000000000000, 0.0000000000000000000 ) ) ;
#181 = CARTESIAN_POINT ( 'NONE',  ( 1.187103655206665183E-14, 0.0000000000000000000, 3.399999999999999911 ) ) ;
#182 = CARTESIAN_POINT ( 'NONE',  ( 9.121270025168804402E-15, 0.7499999999999997780, 2.612435565298207862 ) ) ;
#183 = VERTEX_POINT ( 'NONE', #158 ) ;
#184 = ADVANCED_FACE ( 'NONE', ( #97 ), #96, .F. ) ;
#185 = ORIENTED_EDGE ( 'NONE', *, *, #5, .F. ) ;
#186 = ORIENTED_EDGE ( 'NONE', *, *, #126, .F. ) ;
#187 = CIRCLE ( 'NONE', #7, 1.499999999999996891 ) ;
#188 = APPROVAL_ROLE ( '' ) ;
#189 = PERSON_AND_ORGANIZATION ( #136, #163 ) ;
#190 = CARTESIAN_POINT ( 'NONE',  ( 9.121270025168804402E-15, -3.199310853021156381E-16, 2.612435565298207862 ) ) ;
#191 = AXIS2_PLACEMENT_3D ( 'NONE', #195, #52, #118 ) ;
#192 = FACE_OUTER_BOUND ( 'NONE', #122, .T. ) ;
#193 = CARTESIAN_POINT ( 'NONE',  ( 1.187103655206665183E-14, -4.163799117101000559E-16, 3.399999999999999911 ) ) ;
#194 = APPROVAL ( #19, 'UNSPECIFIED' ) ;
#195 = CARTESIAN_POINT ( 'NONE',  ( 1.316288464743861212E-13, -4.616918432785521081E-15, 37.69999999999999574 ) ) ;
#196 = CONICAL_SURFACE ( 'NONE', #78, 1.200000000000003286, 0.7853981633974453924 ) ;
#197 = DIRECTION ( 'NONE',  ( 4.275831445896958607E-31, 1.000000000000000000, 1.224646799147353207E-16 ) ) ;
#198 = CC_DESIGN_SECURITY_CLASSIFICATION ( #115, ( #169 ) ) ;
#199 = CC_DESIGN_APPROVAL ( #133, ( #165 ) ) ;
#200 = PERSON_AND_ORGANIZATION ( #136, #163 ) ;
#201 = COORDINATED_UNIVERSAL_TIME_OFFSET ( 1, 0, .AHEAD. ) ;
#202 = APPROVAL_DATE_TIME ( #170, #133 ) ;
#203 = PERSON_AND_ORGANIZATION ( #136, #163 ) ;
#204 = AXIS2_PLACEMENT_3D ( 'NONE', #212, #24, #237 ) ;
#205 = DIRECTION ( 'NONE',  ( 3.491481338843133355E-15, -1.224646799147353207E-16, 1.000000000000000000 ) ) ;
#206 = AXIS2_PLACEMENT_3D ( 'NONE', #216, #176, #46 ) ;
#207 =( LENGTH_UNIT ( ) NAMED_UNIT ( * ) SI_UNIT ( .MILLI., .METRE. ) );
#208 = EDGE_LOOP ( 'NONE', ( #16 ) ) ;
#209 = EDGE_LOOP ( 'NONE', ( #61 ) ) ;
#210 = PERSON_AND_ORGANIZATION ( #136, #163 ) ;
#211 = PERSON_AND_ORGANIZATION_ROLE ( 'classification_officer' ) ;
#212 = CARTESIAN_POINT ( 'NONE',  ( -1.710332578358783705E-32, 5.999039130647431458E-34, -4.898587196589413537E-18 ) ) ;
#213 = SECURITY_CLASSIFICATION_LEVEL ( 'unclassified' ) ;
#214 = DIRECTION ( 'NONE',  ( 0.0000000000000000000, 1.000000000000000000, 0.0000000000000000000 ) ) ;
#215 = AXIS2_PLACEMENT_3D ( 'NONE', #174, #155, #214 ) ;
#216 = CARTESIAN_POINT ( 'NONE',  ( 1.326762908760390423E-13, -4.653657836759941941E-15, 38.00000000000000000 ) ) ;
#217 = DIRECTION ( 'NONE',  ( -3.491481338843133355E-15, 1.224646799147353207E-16, -1.000000000000000000 ) ) ;
#218 = LOCAL_TIME ( 8, 9, 53.00000000000000000, #201 ) ;
#219 = CLOSED_SHELL ( 'NONE', ( #44, #141, #167, #156, #21, #184 ) ) ;
#220 = APPLICATION_PROTOCOL_DEFINITION ( 'international standard', 'config_control_design', 1994, #28 ) ;
#221 = FACE_OUTER_BOUND ( 'NONE', #161, .T. ) ;
#222 = MECHANICAL_CONTEXT ( 'NONE', #28, 'mechanical' ) ;
#223 = AXIS2_PLACEMENT_3D ( 'NONE', #110, #175, #65 ) ;
#224 = CARTESIAN_POINT ( 'NONE',  ( 1.316288464743861212E-13, 1.499999999999998668, 37.69999999999999574 ) ) ;
#225 = EDGE_LOOP ( 'NONE', ( #185 ) ) ;
#226 = CIRCLE ( 'NONE', #191, 1.500000000000003331 ) ;
#227 = ORIENTED_EDGE ( 'NONE', *, *, #101, .T. ) ;
#228 = CALENDAR_DATE ( 2021, 24, 11 ) ;
#229 = EDGE_LOOP ( 'NONE', ( #59 ) ) ;
#230 = ADVANCED_BREP_SHAPE_REPRESENTATION ( '976376', ( #63, #72, #31 ), #11 ) ;
#231 = APPROVAL_STATUS ( 'not_yet_approved' ) ;
#232 = APPROVAL_ROLE ( '' ) ;
#233 = COORDINATED_UNIVERSAL_TIME_OFFSET ( 1, 0, .AHEAD. ) ;
#234 = CC_DESIGN_PERSON_AND_ORGANIZATION_ASSIGNMENT ( #200, #84, ( #169 ) ) ;
#235 = CONICAL_SURFACE ( 'NONE', #204, 0.05000000000000000278, 0.2617993877991500740 ) ;
#236 = DIRECTION ( 'NONE',  ( -4.275831445896958607E-31, -1.000000000000000000, -1.224646799147353207E-16 ) ) ;
#237 = DIRECTION ( 'NONE',  ( -4.275831445896958607E-31, -1.000000000000000000, -1.224646799147353207E-16 ) ) ;
#238 = CIRCLE ( 'NONE', #206, 1.200000000000003286 ) ;
#239 = VERTEX_POINT ( 'NONE', #134 ) ;
#240 = CARTESIAN_POINT ( 'NONE',  ( 2.367900757518973625E-14, 1.499999999999996225, 6.781937314617162649 ) ) ;
#241 = CARTESIAN_POINT ( 'NONE',  ( 0.0000000000000000000, 0.0000000000000000000, 0.0000000000000000000 ) ) ;
#242 = VERTEX_POINT ( 'NONE', #224 ) ;
#243 = AXIS2_PLACEMENT_3D ( 'NONE', #241, #217, #13 ) ;
ENDSEC;
END-ISO-10303-21;
