ISO-10303-21;
HEADER;
FILE_DESCRIPTION (( 'STEP AP203' ),
    '1' );
FILE_NAME ('976375.step',
    '2021-11-24T07:09:53',
    ( '' ),
    ( '' ),
    'SwSTEP 2.0',
    'SolidWorks 2019',
    '' );
FILE_SCHEMA (( 'CONFIG_CONTROL_DESIGN' ));
ENDSEC;

DATA;
#1 = FACE_OUTER_BOUND ( 'NONE', #176, .T. ) ;
#2 = EDGE_LOOP ( 'NONE', ( #72 ) ) ;
#3 = AXIS2_PLACEMENT_3D ( 'NONE', #147, #207, #170 ) ;
#4 = DIRECTION ( 'NONE',  ( -3.491481338843133355E-15, 1.224646799147353207E-16, -1.000000000000000000 ) ) ;
#5 = AXIS2_PLACEMENT_3D ( 'NONE', #61, #48, #50 ) ;
#6 = COORDINATED_UNIVERSAL_TIME_OFFSET ( 1, 0, .AHEAD. ) ;
#7 = COORDINATED_UNIVERSAL_TIME_OFFSET ( 1, 0, .AHEAD. ) ;
#8 = ADVANCED_FACE ( 'NONE', ( #1, #142 ), #43, .T. ) ;
#9 = DIRECTION ( 'NONE',  ( 3.491481338843133355E-15, -1.224646799147353207E-16, 1.000000000000000000 ) ) ;
#10 = DIRECTION ( 'NONE',  ( 0.0000000000000000000, 1.000000000000000000, 0.0000000000000000000 ) ) ;
#11 = CIRCLE ( 'NONE', #91, 0.7500000000000001110 ) ;
#12 = CARTESIAN_POINT ( 'NONE',  ( 1.326762908760390423E-13, 1.199999999999998845, 38.00000000000000000 ) ) ;
#13 = CC_DESIGN_DATE_AND_TIME_ASSIGNMENT ( #44, #46, ( #172 ) ) ;
#14 = FACE_OUTER_BOUND ( 'NONE', #2, .T. ) ;
#15 = CIRCLE ( 'NONE', #137, 0.7500000000000011102 ) ;
#16 = DIRECTION ( 'NONE',  ( 4.355100981429076768E-31, 1.000000000000000000, 1.224646799147353207E-16 ) ) ;
#17 = CARTESIAN_POINT ( 'NONE',  ( 1.316288464743861212E-13, 1.499999999999998668, 37.69999999999999574 ) ) ;
#18 = APPLICATION_PROTOCOL_DEFINITION ( 'international standard', 'config_control_design', 1994, #210 ) ;
#19 =( GEOMETRIC_REPRESENTATION_CONTEXT ( 3 ) GLOBAL_UNCERTAINTY_ASSIGNED_CONTEXT ( ( #136 ) ) GLOBAL_UNIT_ASSIGNED_CONTEXT ( ( #68, #69, #34 ) ) REPRESENTATION_CONTEXT ( 'NONE', 'WORKASPACE' ) );
#20 = ORIENTED_EDGE ( 'NONE', *, *, #75, .F. ) ;
#21 = APPROVAL_STATUS ( 'not_yet_approved' ) ;
#22 = AXIS2_PLACEMENT_3D ( 'NONE', #138, #78, #162 ) ;
#23 = ADVANCED_FACE ( 'NONE', ( #164 ), #160, .F. ) ;
#24 = PERSON_AND_ORGANIZATION_ROLE ( 'design_supplier' ) ;
#25 = CIRCLE ( 'NONE', #101, 0.7500000000000001110 ) ;
#26 = CALENDAR_DATE ( 2021, 24, 11 ) ;
#27 = CC_DESIGN_PERSON_AND_ORGANIZATION_ASSIGNMENT ( #54, #133, ( #193 ) ) ;
#28 = TOROIDAL_SURFACE ( 'NONE', #144, 8.750000000000000000, 8.000000000000000000 ) ;
#29 = DIRECTION ( 'NONE',  ( -3.491481338843133355E-15, 1.224646799147353207E-16, -1.000000000000000000 ) ) ;
#30 = APPROVAL ( #114, 'UNSPECIFIED' ) ;
#31 = FACE_OUTER_BOUND ( 'NONE', #36, .T. ) ;
#32 = EDGE_CURVE ( 'NONE', #84, #84, #130, .T. ) ;
#33 = DIRECTION ( 'NONE',  ( -3.491481338843133355E-15, 1.224646799147353207E-16, -1.000000000000000000 ) ) ;
#34 =( NAMED_UNIT ( * ) SI_UNIT ( $, .STERADIAN. ) SOLID_ANGLE_UNIT ( ) );
#35 = CIRCLE ( 'NONE', #41, 0.04000000000000000083 ) ;
#36 = EDGE_LOOP ( 'NONE', ( #135 ) ) ;
#37 = ORIENTED_EDGE ( 'NONE', *, *, #122, .T. ) ;
#38 = COORDINATED_UNIVERSAL_TIME_OFFSET ( 1, 0, .AHEAD. ) ;
#39 = DESIGN_CONTEXT ( 'detailed design', #210, 'design' ) ;
#40 = EDGE_LOOP ( 'NONE', ( #112 ) ) ;
#41 = AXIS2_PLACEMENT_3D ( 'NONE', #188, #103, #185 ) ;
#42 = APPROVAL_PERSON_ORGANIZATION ( #158, #227, #62 ) ;
#43 = CYLINDRICAL_SURFACE ( 'NONE', #22, 1.500000000000000000 ) ;
#44 = DATE_AND_TIME ( #26, #47 ) ;
#45 = PRODUCT_RELATED_PRODUCT_CATEGORY ( 'detail', '', ( #193 ) ) ;
#46 = DATE_TIME_ROLE ( 'creation_date' ) ;
#47 = LOCAL_TIME ( 8, 9, 53.00000000000000000, #38 ) ;
#48 = DIRECTION ( 'NONE',  ( 3.491481338843133355E-15, -1.224646799147353207E-16, 1.000000000000000000 ) ) ;
#49 = AXIS2_PLACEMENT_3D ( 'NONE', #234, #105, #126 ) ;
#50 = DIRECTION ( 'NONE',  ( -4.275831445896958607E-31, -1.000000000000000000, -1.224646799147353207E-16 ) ) ;
#51 = AXIS2_PLACEMENT_3D ( 'NONE', #140, #161, #213 ) ;
#52 = LOCAL_TIME ( 8, 9, 53.00000000000000000, #7 ) ;
#53 = DIRECTION ( 'NONE',  ( -3.491481338843133355E-15, 1.224646799147353207E-16, -1.000000000000000000 ) ) ;
#54 = PERSON_AND_ORGANIZATION ( #128, #195 ) ;
#55 = ADVANCED_FACE ( 'NONE', ( #63, #167 ), #240, .T. ) ;
#56 = ORIENTED_EDGE ( 'NONE', *, *, #186, .F. ) ;
#57 = APPROVAL_DATE_TIME ( #243, #180 ) ;
#58 = AXIS2_PLACEMENT_3D ( 'NONE', #194, #29, #104 ) ;
#59 = DIRECTION ( 'NONE',  ( 0.0000000000000000000, 1.000000000000000000, 0.0000000000000000000 ) ) ;
#60 = APPROVAL_DATE_TIME ( #212, #227 ) ;
#61 = CARTESIAN_POINT ( 'NONE',  ( 9.251573882671214631E-15, 5.624099184981962608E-33, 2.649756073373895848 ) ) ;
#62 = APPROVAL_ROLE ( '' ) ;
#63 = FACE_OUTER_BOUND ( 'NONE', #154, .T. ) ;
#64 = MANIFOLD_SOLID_BREP ( 'Corps-Déplacer/Copier1[1]', #131 ) ;
#65 = DIRECTION ( 'NONE',  ( 0.0000000000000000000, 1.000000000000000000, 0.0000000000000000000 ) ) ;
#66 = DIRECTION ( 'NONE',  ( 0.0000000000000000000, 1.000000000000000000, 0.0000000000000000000 ) ) ;
#67 = CARTESIAN_POINT ( 'NONE',  ( 9.251573882671216209E-15, 0.7499999999999997780, 2.649756073373896292 ) ) ;
#68 =( LENGTH_UNIT ( ) NAMED_UNIT ( * ) SI_UNIT ( .MILLI., .METRE. ) );
#69 =( NAMED_UNIT ( * ) PLANE_ANGLE_UNIT ( ) SI_UNIT ( $, .RADIAN. ) );
#70 = VERTEX_POINT ( 'NONE', #235 ) ;
#71 = CC_DESIGN_SECURITY_CLASSIFICATION ( #183, ( #74 ) ) ;
#72 = ORIENTED_EDGE ( 'NONE', *, *, #79, .F. ) ;
#73 = CC_DESIGN_PERSON_AND_ORGANIZATION_ASSIGNMENT ( #82, #203, ( #183 ) ) ;
#74 = PRODUCT_DEFINITION_FORMATION_WITH_SPECIFIED_SOURCE ( 'ANY', '', #193, .NOT_KNOWN. ) ;
#75 = EDGE_CURVE ( 'NONE', #221, #221, #25, .T. ) ;
#76 = APPLICATION_CONTEXT ( 'configuration controlled 3d designs of mechanical parts and assemblies' ) ;
#77 = CC_DESIGN_DATE_AND_TIME_ASSIGNMENT ( #163, #232, ( #183 ) ) ;
#78 = DIRECTION ( 'NONE',  ( -3.491481338843133355E-15, 1.224646799147353207E-16, -1.000000000000000000 ) ) ;
#79 = EDGE_CURVE ( 'NONE', #187, #187, #230, .T. ) ;
#80 = AXIS2_PLACEMENT_3D ( 'NONE', #124, #182, #65 ) ;
#81 = PLANE ( 'NONE',  #5 ) ;
#82 = PERSON_AND_ORGANIZATION ( #128, #195 ) ;
#83 = VERTEX_POINT ( 'NONE', #169 ) ;
#84 = VERTEX_POINT ( 'NONE', #17 ) ;
#85 = FACE_OUTER_BOUND ( 'NONE', #225, .T. ) ;
#86 = ADVANCED_BREP_SHAPE_REPRESENTATION ( '976375', ( #64, #229, #110 ), #19 ) ;
#87 = FACE_BOUND ( 'NONE', #108, .T. ) ;
#88 = DIRECTION ( 'NONE',  ( 1.000000000000000000, 0.0000000000000000000, 0.0000000000000000000 ) ) ;
#89 = CARTESIAN_POINT ( 'NONE',  ( 1.187103655206665183E-14, 0.0000000000000000000, 3.399999999999999911 ) ) ;
#90 = DIRECTION ( 'NONE',  ( 0.0000000000000000000, 0.0000000000000000000, 1.000000000000000000 ) ) ;
#91 = AXIS2_PLACEMENT_3D ( 'NONE', #205, #171, #66 ) ;
#92 = ADVANCED_FACE ( 'NONE', ( #98 ), #81, .F. ) ;
#93 = EDGE_LOOP ( 'NONE', ( #111 ) ) ;
#94 = ORIENTED_EDGE ( 'NONE', *, *, #79, .T. ) ;
#95 = ORIENTED_EDGE ( 'NONE', *, *, #32, .F. ) ;
#96 = DATE_AND_TIME ( #231, #116 ) ;
#97 = AXIS2_PLACEMENT_3D ( 'NONE', #118, #4, #59 ) ;
#98 = FACE_OUTER_BOUND ( 'NONE', #93, .T. ) ;
#99 = PERSON_AND_ORGANIZATION_ROLE ( 'creator' ) ;
#100 = DIRECTION ( 'NONE',  ( -3.491481338843133355E-15, 1.224646799147353207E-16, -1.000000000000000000 ) ) ;
#101 = AXIS2_PLACEMENT_3D ( 'NONE', #204, #100, #10 ) ;
#102 = PLANE ( 'NONE',  #3 ) ;
#103 = DIRECTION ( 'NONE',  ( -3.491481338843133355E-15, 1.224646799147353207E-16, -1.000000000000000000 ) ) ;
#104 = DIRECTION ( 'NONE',  ( 0.0000000000000000000, 1.000000000000000000, 0.0000000000000000000 ) ) ;
#105 = DIRECTION ( 'NONE',  ( -3.491481338843133355E-15, 1.224646799147353207E-16, -1.000000000000000000 ) ) ;
#106 = DIRECTION ( 'NONE',  ( 4.275831445896958607E-31, 1.000000000000000000, 1.224646799147353207E-16 ) ) ;
#107 = APPLICATION_PROTOCOL_DEFINITION ( 'international standard', 'config_control_design', 1994, #76 ) ;
#108 = EDGE_LOOP ( 'NONE', ( #94 ) ) ;
#109 = COORDINATED_UNIVERSAL_TIME_OFFSET ( 1, 0, .AHEAD. ) ;
#110 = AXIS2_PLACEMENT_3D ( 'NONE', #192, #90, #88 ) ;
#111 = ORIENTED_EDGE ( 'NONE', *, *, #75, .T. ) ;
#112 = ORIENTED_EDGE ( 'NONE', *, *, #134, .F. ) ;
#113 = ORIENTED_EDGE ( 'NONE', *, *, #32, .T. ) ;
#114 = APPROVAL_STATUS ( 'not_yet_approved' ) ;
#115 = AXIS2_PLACEMENT_3D ( 'NONE', #214, #9, #216 ) ;
#116 = LOCAL_TIME ( 8, 9, 53.00000000000000000, #6 ) ;
#117 = EDGE_LOOP ( 'NONE', ( #173 ) ) ;
#118 = CARTESIAN_POINT ( 'NONE',  ( 1.326762908760390423E-13, -4.653657836759941941E-15, 38.00000000000000000 ) ) ;
#119 = COORDINATED_UNIVERSAL_TIME_OFFSET ( 1, 0, .AHEAD. ) ;
#120 = LOCAL_TIME ( 8, 9, 53.00000000000000000, #109 ) ;
#121 = CALENDAR_DATE ( 2021, 24, 11 ) ;
#122 = EDGE_CURVE ( 'NONE', #83, #83, #159, .T. ) ;
#123 = CC_DESIGN_PERSON_AND_ORGANIZATION_ASSIGNMENT ( #165, #143, ( #74 ) ) ;
#124 = CARTESIAN_POINT ( 'NONE',  ( 1.316288464743861212E-13, -4.616918432785521081E-15, 37.69999999999999574 ) ) ;
#125 = FACE_OUTER_BOUND ( 'NONE', #196, .T. ) ;
#126 = DIRECTION ( 'NONE',  ( 4.275831445896958607E-31, 1.000000000000000000, 1.224646799147353207E-16 ) ) ;
#127 = DIRECTION ( 'NONE',  ( 0.0000000000000000000, 1.000000000000000000, 0.0000000000000000000 ) ) ;
#128 = PERSON ( 'UNSPECIFIED', 'UNSPECIFIED', 'UNSPECIFIED', ('UNSPECIFIED'), ('UNSPECIFIED'), ('UNSPECIFIED') ) ;
#129 = FACE_OUTER_BOUND ( 'NONE', #178, .T. ) ;
#130 = CIRCLE ( 'NONE', #80, 1.500000000000003331 ) ;
#131 = CLOSED_SHELL ( 'NONE', ( #92, #157, #139, #8, #184, #218 ) ) ;
#132 = FACE_OUTER_BOUND ( 'NONE', #209, .T. ) ;
#133 = PERSON_AND_ORGANIZATION_ROLE ( 'design_owner' ) ;
#134 = EDGE_CURVE ( 'NONE', #238, #238, #15, .T. ) ;
#135 = ORIENTED_EDGE ( 'NONE', *, *, #134, .T. ) ;
#136 = UNCERTAINTY_MEASURE_WITH_UNIT (LENGTH_MEASURE( 1.000000000000000082E-05 ), #68, 'distance_accuracy_value', 'NONE');
#137 = AXIS2_PLACEMENT_3D ( 'NONE', #206, #33, #222 ) ;
#138 = CARTESIAN_POINT ( 'NONE',  ( 0.0000000000000000000, 0.0000000000000000000, 0.0000000000000000000 ) ) ;
#139 = ADVANCED_FACE ( 'NONE', ( #125, #237 ), #28, .F. ) ;
#140 = CARTESIAN_POINT ( 'NONE',  ( -1.068957861474239268E-32, 3.749399456654642737E-34, -3.061616997868382016E-18 ) ) ;
#141 = SHAPE_DEFINITION_REPRESENTATION ( #223, #86 ) ;
#142 = FACE_OUTER_BOUND ( 'NONE', #179, .T. ) ;
#143 = PERSON_AND_ORGANIZATION_ROLE ( 'creator' ) ;
#144 = AXIS2_PLACEMENT_3D ( 'NONE', #89, #53, #16 ) ;
#145 = CARTESIAN_POINT ( 'NONE',  ( 1.326762908760390423E-13, 8.998558695971103225E-33, 38.00000000000000000 ) ) ;
#146 = VERTEX_POINT ( 'NONE', #220 ) ;
#147 = CARTESIAN_POINT ( 'NONE',  ( 9.251573882671214631E-15, 5.624099184981962608E-33, 2.649756073373895848 ) ) ;
#148 = DIRECTION ( 'NONE',  ( -3.491481338843133355E-15, 1.224646799147353207E-16, -1.000000000000000000 ) ) ;
#149 = CYLINDRICAL_SURFACE ( 'NONE', #49, 0.7500000000000006661 ) ;
#150 = MECHANICAL_CONTEXT ( 'NONE', #76, 'mechanical' ) ;
#151 = CONICAL_SURFACE ( 'NONE', #58, 1.200000000000003286, 0.7853981633974453924 ) ;
#152 = LOCAL_TIME ( 8, 9, 53.00000000000000000, #119 ) ;
#153 = APPROVAL_ROLE ( '' ) ;
#154 = EDGE_LOOP ( 'NONE', ( #241 ) ) ;
#155 = CC_DESIGN_APPROVAL ( #180, ( #172 ) ) ;
#156 = PERSON_AND_ORGANIZATION ( #128, #195 ) ;
#157 = ADVANCED_FACE ( 'NONE', ( #31, #132 ), #149, .T. ) ;
#158 = PERSON_AND_ORGANIZATION ( #128, #195 ) ;
#159 = CIRCLE ( 'NONE', #189, 1.499999999999996891 ) ;
#160 = PLANE ( 'NONE',  #115 ) ;
#161 = DIRECTION ( 'NONE',  ( 3.491481338843133355E-15, -1.224646799147353207E-16, 1.000000000000000000 ) ) ;
#162 = DIRECTION ( 'NONE',  ( 4.275831445896959482E-31, 1.000000000000000000, 1.224646799147353207E-16 ) ) ;
#163 = DATE_AND_TIME ( #200, #152 ) ;
#164 = FACE_OUTER_BOUND ( 'NONE', #211, .T. ) ;
#165 = PERSON_AND_ORGANIZATION ( #128, #195 ) ;
#166 = CC_DESIGN_APPROVAL ( #30, ( #74 ) ) ;
#167 = FACE_BOUND ( 'NONE', #117, .T. ) ;
#168 = CARTESIAN_POINT ( 'NONE',  ( 1.187103655206665183E-14, 0.7500000000000006661, 3.399999999999999911 ) ) ;
#169 = CARTESIAN_POINT ( 'NONE',  ( 2.367900757518973625E-14, 1.499999999999996225, 6.781937314617162649 ) ) ;
#170 = DIRECTION ( 'NONE',  ( -4.275831445896958607E-31, -1.000000000000000000, -1.224646799147353207E-16 ) ) ;
#171 = DIRECTION ( 'NONE',  ( -3.491481338843133355E-15, 1.224646799147353207E-16, -1.000000000000000000 ) ) ;
#172 = PRODUCT_DEFINITION ( 'UNKNOWN', '', #74, #39 ) ;
#173 = ORIENTED_EDGE ( 'NONE', *, *, #233, .F. ) ;
#174 = PERSON_AND_ORGANIZATION ( #128, #195 ) ;
#175 = CALENDAR_DATE ( 2021, 24, 11 ) ;
#176 = EDGE_LOOP ( 'NONE', ( #199 ) ) ;
#177 = CC_DESIGN_PERSON_AND_ORGANIZATION_ASSIGNMENT ( #208, #99, ( #172 ) ) ;
#178 = EDGE_LOOP ( 'NONE', ( #56 ) ) ;
#179 = EDGE_LOOP ( 'NONE', ( #113 ) ) ;
#180 = APPROVAL ( #242, 'UNSPECIFIED' ) ;
#181 = APPROVAL_ROLE ( '' ) ;
#182 = DIRECTION ( 'NONE',  ( -3.491481338843133355E-15, 1.224646799147353207E-16, -1.000000000000000000 ) ) ;
#183 = SECURITY_CLASSIFICATION ( '', '', #197 ) ;
#184 = ADVANCED_FACE ( 'NONE', ( #85, #87 ), #151, .T. ) ;
#185 = DIRECTION ( 'NONE',  ( 4.275831445896958607E-31, 1.000000000000000000, 1.224646799147353207E-16 ) ) ;
#186 = EDGE_CURVE ( 'NONE', #70, #70, #11, .T. ) ;
#187 = VERTEX_POINT ( 'NONE', #12 ) ;
#188 = CARTESIAN_POINT ( 'NONE',  ( -1.068957861474239268E-32, 3.749399456654642737E-34, -3.061616997868382016E-18 ) ) ;
#189 = AXIS2_PLACEMENT_3D ( 'NONE', #217, #190, #127 ) ;
#190 = DIRECTION ( 'NONE',  ( -3.491481338843133355E-15, 1.224646799147353207E-16, -1.000000000000000000 ) ) ;
#191 = ADVANCED_FACE ( 'NONE', ( #129 ), #102, .T. ) ;
#192 = CARTESIAN_POINT ( 'NONE',  ( 0.0000000000000000000, 0.0000000000000000000, 0.0000000000000000000 ) ) ;
#193 = PRODUCT ( '976375', '976375', '', ( #150 ) ) ;
#194 = CARTESIAN_POINT ( 'NONE',  ( 1.326762908760390423E-13, -4.653657836759941941E-15, 38.00000000000000000 ) ) ;
#195 = ORGANIZATION ( 'UNSPECIFIED', 'UNSPECIFIED', '' ) ;
#196 = EDGE_LOOP ( 'NONE', ( #37 ) ) ;
#197 = SECURITY_CLASSIFICATION_LEVEL ( 'unclassified' ) ;
#198 = CC_DESIGN_APPROVAL ( #227, ( #183 ) ) ;
#199 = ORIENTED_EDGE ( 'NONE', *, *, #122, .F. ) ;
#200 = CALENDAR_DATE ( 2021, 24, 11 ) ;
#201 = CC_DESIGN_PERSON_AND_ORGANIZATION_ASSIGNMENT ( #215, #24, ( #74 ) ) ;
#202 = APPROVAL_DATE_TIME ( #96, #30 ) ;
#203 = PERSON_AND_ORGANIZATION_ROLE ( 'classification_officer' ) ;
#204 = CARTESIAN_POINT ( 'NONE',  ( 9.251573882671216209E-15, -3.245015293778601317E-16, 2.649756073373896292 ) ) ;
#205 = CARTESIAN_POINT ( 'NONE',  ( 9.251573882671216209E-15, -3.245015293778601317E-16, 2.649756073373896292 ) ) ;
#206 = CARTESIAN_POINT ( 'NONE',  ( 1.187103655206665183E-14, -4.163799117101000559E-16, 3.399999999999999911 ) ) ;
#207 = DIRECTION ( 'NONE',  ( 3.491481338843133355E-15, -1.224646799147353207E-16, 1.000000000000000000 ) ) ;
#208 = PERSON_AND_ORGANIZATION ( #128, #195 ) ;
#209 = EDGE_LOOP ( 'NONE', ( #20 ) ) ;
#210 = APPLICATION_CONTEXT ( 'configuration controlled 3d designs of mechanical parts and assemblies' ) ;
#211 = EDGE_LOOP ( 'NONE', ( #226 ) ) ;
#212 = DATE_AND_TIME ( #121, #52 ) ;
#213 = DIRECTION ( 'NONE',  ( -4.275831445896958607E-31, -1.000000000000000000, -1.224646799147353454E-16 ) ) ;
#214 = CARTESIAN_POINT ( 'NONE',  ( -5.344789307371196342E-33, 1.874699728327321368E-34, -1.530808498934191008E-18 ) ) ;
#215 = PERSON_AND_ORGANIZATION ( #128, #195 ) ;
#216 = DIRECTION ( 'NONE',  ( -4.275831445896958607E-31, -1.000000000000000000, -1.224646799147353207E-16 ) ) ;
#217 = CARTESIAN_POINT ( 'NONE',  ( 2.367900757518973625E-14, -8.305477824363904586E-16, 6.781937314617162649 ) ) ;
#218 = ADVANCED_FACE ( 'NONE', ( #14 ), #239, .F. ) ;
#219 = AXIS2_PLACEMENT_3D ( 'NONE', #145, #148, #106 ) ;
#220 = CARTESIAN_POINT ( 'NONE',  ( 6.413747168845441632E-33, 0.04000000000000000083, 1.836970198721030751E-18 ) ) ;
#221 = VERTEX_POINT ( 'NONE', #67 ) ;
#222 = DIRECTION ( 'NONE',  ( 0.0000000000000000000, 1.000000000000000000, 0.0000000000000000000 ) ) ;
#223 = PRODUCT_DEFINITION_SHAPE ( 'NONE', 'NONE',  #172 ) ;
#224 = APPROVAL_PERSON_ORGANIZATION ( #156, #30, #181 ) ;
#225 = EDGE_LOOP ( 'NONE', ( #95 ) ) ;
#226 = ORIENTED_EDGE ( 'NONE', *, *, #233, .T. ) ;
#227 = APPROVAL ( #21, 'UNSPECIFIED' ) ;
#228 = CLOSED_SHELL ( 'NONE', ( #23, #55, #191 ) ) ;
#229 = MANIFOLD_SOLID_BREP ( 'Corps-Déplacer/Copier1[2]', #228 ) ;
#230 = CIRCLE ( 'NONE', #97, 1.200000000000003286 ) ;
#231 = CALENDAR_DATE ( 2021, 24, 11 ) ;
#232 = DATE_TIME_ROLE ( 'classification_date' ) ;
#233 = EDGE_CURVE ( 'NONE', #146, #146, #35, .T. ) ;
#234 = CARTESIAN_POINT ( 'NONE',  ( 0.0000000000000000000, 0.0000000000000000000, 0.0000000000000000000 ) ) ;
#235 = CARTESIAN_POINT ( 'NONE',  ( 9.251573882671216209E-15, 0.7499999999999997780, 2.649756073373896292 ) ) ;
#236 = APPROVAL_PERSON_ORGANIZATION ( #174, #180, #153 ) ;
#237 = FACE_OUTER_BOUND ( 'NONE', #40, .T. ) ;
#238 = VERTEX_POINT ( 'NONE', #168 ) ;
#239 = PLANE ( 'NONE',  #219 ) ;
#240 = CONICAL_SURFACE ( 'NONE', #51, 0.04000000000000000083, 0.2617993877991500740 ) ;
#241 = ORIENTED_EDGE ( 'NONE', *, *, #186, .T. ) ;
#242 = APPROVAL_STATUS ( 'not_yet_approved' ) ;
#243 = DATE_AND_TIME ( #175, #120 ) ;
ENDSEC;
END-ISO-10303-21;
