ISO-10303-21;
HEADER;
FILE_DESCRIPTION (( 'STEP AP203' ),
    '1' );
FILE_NAME ('976374.step',
    '2021-11-24T07:09:52',
    ( '' ),
    ( '' ),
    'SwSTEP 2.0',
    'SolidWorks 2019',
    '' );
FILE_SCHEMA (( 'CONFIG_CONTROL_DESIGN' ));
ENDSEC;

DATA;
#1 = PERSON ( 'UNSPECIFIED', 'UNSPECIFIED', 'UNSPECIFIED', ('UNSPECIFIED'), ('UNSPECIFIED'), ('UNSPECIFIED') ) ;
#2 = CLOSED_SHELL ( 'NONE', ( #105, #66, #150, #45, #108, #209 ) ) ;
#3 = CC_DESIGN_PERSON_AND_ORGANIZATION_ASSIGNMENT ( #233, #120, ( #129 ) ) ;
#4 = CARTESIAN_POINT ( 'NONE',  ( 9.447029668924834708E-15, -3.313571954914768968E-16, 2.705736835487429381 ) ) ;
#5 = FACE_OUTER_BOUND ( 'NONE', #48, .T. ) ;
#6 = DATE_AND_TIME ( #231, #167 ) ;
#7 =( LENGTH_UNIT ( ) NAMED_UNIT ( * ) SI_UNIT ( .MILLI., .METRE. ) );
#8 = PERSON_AND_ORGANIZATION ( #1, #22 ) ;
#9 = PERSON_AND_ORGANIZATION_ROLE ( 'design_owner' ) ;
#10 = CYLINDRICAL_SURFACE ( 'NONE', #98, 1.500000000000000000 ) ;
#11 = AXIS2_PLACEMENT_3D ( 'NONE', #91, #34, #182 ) ;
#12 = CC_DESIGN_APPROVAL ( #23, ( #212 ) ) ;
#13 = DATE_TIME_ROLE ( 'creation_date' ) ;
#14 = FACE_OUTER_BOUND ( 'NONE', #218, .T. ) ;
#15 = DIRECTION ( 'NONE',  ( -4.275831445896958607E-31, -1.000000000000000000, -1.224646799147353207E-16 ) ) ;
#16 = APPROVAL ( #118, 'UNSPECIFIED' ) ;
#17 = EDGE_LOOP ( 'NONE', ( #109 ) ) ;
#18 = AXIS2_PLACEMENT_3D ( 'NONE', #19, #74, #147 ) ;
#19 = CARTESIAN_POINT ( 'NONE',  ( 2.367900757518973625E-14, -8.305477824363904586E-16, 6.781937314617162649 ) ) ;
#20 = DIRECTION ( 'NONE',  ( -3.491481338843133355E-15, 1.224646799147353207E-16, -1.000000000000000000 ) ) ;
#21 = EDGE_CURVE ( 'NONE', #61, #61, #242, .T. ) ;
#22 = ORGANIZATION ( 'UNSPECIFIED', 'UNSPECIFIED', '' ) ;
#23 = APPROVAL ( #80, 'UNSPECIFIED' ) ;
#24 = DIRECTION ( 'NONE',  ( -4.275831445896960358E-31, -1.000000000000000000, -1.224646799147352714E-16 ) ) ;
#25 = DIRECTION ( 'NONE',  ( 0.0000000000000000000, 0.0000000000000000000, 1.000000000000000000 ) ) ;
#26 = AXIS2_PLACEMENT_3D ( 'NONE', #127, #203, #35 ) ;
#27 = DIRECTION ( 'NONE',  ( 0.0000000000000000000, 1.000000000000000000, 0.0000000000000000000 ) ) ;
#28 = PLANE ( 'NONE',  #135 ) ;
#29 = DIRECTION ( 'NONE',  ( 3.491481338843133355E-15, -1.224646799147353207E-16, 1.000000000000000000 ) ) ;
#30 = CIRCLE ( 'NONE', #11, 1.200000000000003286 ) ;
#31 = APPROVAL_PERSON_ORGANIZATION ( #161, #23, #97 ) ;
#32 = ORIENTED_EDGE ( 'NONE', *, *, #235, .F. ) ;
#33 = ADVANCED_FACE ( 'NONE', ( #125 ), #28, .T. ) ;
#34 = DIRECTION ( 'NONE',  ( -3.491481338843133355E-15, 1.224646799147353207E-16, -1.000000000000000000 ) ) ;
#35 = DIRECTION ( 'NONE',  ( 0.0000000000000000000, 1.000000000000000000, 0.0000000000000000000 ) ) ;
#36 = AXIS2_PLACEMENT_3D ( 'NONE', #198, #29, #179 ) ;
#37 = FACE_OUTER_BOUND ( 'NONE', #220, .T. ) ;
#38 = CARTESIAN_POINT ( 'NONE',  ( 1.316288464743861212E-13, 1.499999999999998668, 37.69999999999999574 ) ) ;
#39 = AXIS2_PLACEMENT_3D ( 'NONE', #170, #83, #192 ) ;
#40 = COORDINATED_UNIVERSAL_TIME_OFFSET ( 1, 0, .AHEAD. ) ;
#41 = PERSON_AND_ORGANIZATION ( #1, #22 ) ;
#42 = COORDINATED_UNIVERSAL_TIME_OFFSET ( 1, 0, .AHEAD. ) ;
#43 = CARTESIAN_POINT ( 'NONE',  ( 0.0000000000000000000, 0.0000000000000000000, 0.0000000000000000000 ) ) ;
#44 = AXIS2_PLACEMENT_3D ( 'NONE', #63, #159, #79 ) ;
#45 = ADVANCED_FACE ( 'NONE', ( #51, #88 ), #10, .T. ) ;
#46 = APPROVAL_STATUS ( 'not_yet_approved' ) ;
#47 = EDGE_LOOP ( 'NONE', ( #236 ) ) ;
#48 = EDGE_LOOP ( 'NONE', ( #239 ) ) ;
#49 = LOCAL_TIME ( 8, 9, 52.00000000000000000, #207 ) ;
#50 = ORIENTED_EDGE ( 'NONE', *, *, #126, .T. ) ;
#51 = FACE_OUTER_BOUND ( 'NONE', #89, .T. ) ;
#52 = ORIENTED_EDGE ( 'NONE', *, *, #21, .F. ) ;
#53 = CIRCLE ( 'NONE', #110, 0.7500000000000000000 ) ;
#54 = DIRECTION ( 'NONE',  ( -3.491481338843133355E-15, 1.224646799147353207E-16, -1.000000000000000000 ) ) ;
#55 = EDGE_CURVE ( 'NONE', #191, #191, #30, .T. ) ;
#56 = CIRCLE ( 'NONE', #26, 1.500000000000003331 ) ;
#57 = CC_DESIGN_APPROVAL ( #16, ( #228 ) ) ;
#58 = MANIFOLD_SOLID_BREP ( 'Corps-Déplacer/Copier1[2]', #143 ) ;
#59 = AXIS2_PLACEMENT_3D ( 'NONE', #232, #210, #171 ) ;
#60 = PERSON_AND_ORGANIZATION_ROLE ( 'creator' ) ;
#61 = VERTEX_POINT ( 'NONE', #158 ) ;
#62 = PERSON_AND_ORGANIZATION ( #1, #22 ) ;
#63 = CARTESIAN_POINT ( 'NONE',  ( -4.275831445896959811E-32, 1.499759782661858121E-33, -1.224646799147353577E-17 ) ) ;
#64 = PERSON_AND_ORGANIZATION_ROLE ( 'design_supplier' ) ;
#65 = PLANE ( 'NONE',  #204 ) ;
#66 = ADVANCED_FACE ( 'NONE', ( #216, #234 ), #183, .T. ) ;
#67 = TOROIDAL_SURFACE ( 'NONE', #39, 8.750000000000000000, 8.000000000000000000 ) ;
#68 = PERSON_AND_ORGANIZATION_ROLE ( 'creator' ) ;
#69 = DIRECTION ( 'NONE',  ( 4.275831445896958607E-31, 1.000000000000000000, 1.224646799147353207E-16 ) ) ;
#70 = EDGE_LOOP ( 'NONE', ( #32 ) ) ;
#71 = CC_DESIGN_PERSON_AND_ORGANIZATION_ASSIGNMENT ( #215, #68, ( #212 ) ) ;
#72 = CARTESIAN_POINT ( 'NONE',  ( 0.0000000000000000000, 0.0000000000000000000, 0.0000000000000000000 ) ) ;
#73 = CARTESIAN_POINT ( 'NONE',  ( 9.447029668924834708E-15, -3.313571954914768968E-16, 2.705736835487429381 ) ) ;
#74 = DIRECTION ( 'NONE',  ( -3.491481338843133355E-15, 1.224646799147353207E-16, -1.000000000000000000 ) ) ;
#75 = CC_DESIGN_DATE_AND_TIME_ASSIGNMENT ( #213, #195, ( #129 ) ) ;
#76 = EDGE_CURVE ( 'NONE', #100, #100, #56, .T. ) ;
#77 = FACE_OUTER_BOUND ( 'NONE', #17, .T. ) ;
#78 = CC_DESIGN_PERSON_AND_ORGANIZATION_ASSIGNMENT ( #155, #64, ( #212 ) ) ;
#79 = DIRECTION ( 'NONE',  ( 4.275831445896957731E-31, 1.000000000000000000, 1.224646799147353454E-16 ) ) ;
#80 = APPROVAL_STATUS ( 'not_yet_approved' ) ;
#81 = CARTESIAN_POINT ( 'NONE',  ( 1.187103655206665183E-14, 0.7500000000000006661, 3.399999999999999911 ) ) ;
#82 = APPROVAL_DATE_TIME ( #84, #172 ) ;
#83 = DIRECTION ( 'NONE',  ( -3.491481338843133355E-15, 1.224646799147353207E-16, -1.000000000000000000 ) ) ;
#84 = DATE_AND_TIME ( #174, #226 ) ;
#85 = DIRECTION ( 'NONE',  ( -3.491481338843133355E-15, 1.224646799147353207E-16, -1.000000000000000000 ) ) ;
#86 = EDGE_LOOP ( 'NONE', ( #104 ) ) ;
#87 = EDGE_LOOP ( 'NONE', ( #50 ) ) ;
#88 = FACE_OUTER_BOUND ( 'NONE', #47, .T. ) ;
#89 = EDGE_LOOP ( 'NONE', ( #202 ) ) ;
#90 = AXIS2_PLACEMENT_3D ( 'NONE', #131, #54, #130 ) ;
#91 = CARTESIAN_POINT ( 'NONE',  ( 1.326762908760390423E-13, -4.653657836759941941E-15, 38.00000000000000000 ) ) ;
#92 = AXIS2_PLACEMENT_3D ( 'NONE', #43, #25, #186 ) ;
#93 = CONICAL_SURFACE ( 'NONE', #166, 1.200000000000003286, 0.7853981633974453924 ) ;
#94 = DIRECTION ( 'NONE',  ( 3.491481338843133355E-15, -1.224646799147353207E-16, 1.000000000000000000 ) ) ;
#95 = EDGE_CURVE ( 'NONE', #208, #208, #169, .T. ) ;
#96 = PLANE ( 'NONE',  #59 ) ;
#97 = APPROVAL_ROLE ( '' ) ;
#98 = AXIS2_PLACEMENT_3D ( 'NONE', #72, #103, #162 ) ;
#99 = CALENDAR_DATE ( 2021, 24, 11 ) ;
#100 = VERTEX_POINT ( 'NONE', #38 ) ;
#101 = ADVANCED_BREP_SHAPE_REPRESENTATION ( '976374', ( #132, #58, #92 ), #221 ) ;
#102 = SHAPE_DEFINITION_REPRESENTATION ( #187, #101 ) ;
#103 = DIRECTION ( 'NONE',  ( -3.491481338843133355E-15, 1.224646799147353207E-16, -1.000000000000000000 ) ) ;
#104 = ORIENTED_EDGE ( 'NONE', *, *, #126, .F. ) ;
#105 = ADVANCED_FACE ( 'NONE', ( #141 ), #123, .F. ) ;
#106 = CARTESIAN_POINT ( 'NONE',  ( 9.447029668924834708E-15, 1.564568402778413460E-15, 2.705736835487429381 ) ) ;
#107 = DIRECTION ( 'NONE',  ( -3.491481338843133355E-15, 1.224646799147353207E-16, -1.000000000000000000 ) ) ;
#108 = ADVANCED_FACE ( 'NONE', ( #14, #149 ), #93, .T. ) ;
#109 = ORIENTED_EDGE ( 'NONE', *, *, #55, .F. ) ;
#110 = AXIS2_PLACEMENT_3D ( 'NONE', #4, #85, #27 ) ;
#111 = FACE_BOUND ( 'NONE', #70, .T. ) ;
#112 = CARTESIAN_POINT ( 'NONE',  ( -4.275831445896959811E-32, 1.499759782661858121E-33, -1.224646799147353577E-17 ) ) ;
#113 = CC_DESIGN_DATE_AND_TIME_ASSIGNMENT ( #6, #13, ( #228 ) ) ;
#114 = CC_DESIGN_SECURITY_CLASSIFICATION ( #129, ( #212 ) ) ;
#115 = VERTEX_POINT ( 'NONE', #81 ) ;
#116 = APPROVAL_PERSON_ORGANIZATION ( #8, #16, #140 ) ;
#117 = MECHANICAL_CONTEXT ( 'NONE', #241, 'mechanical' ) ;
#118 = APPROVAL_STATUS ( 'not_yet_approved' ) ;
#119 = DATE_AND_TIME ( #176, #49 ) ;
#120 = PERSON_AND_ORGANIZATION_ROLE ( 'classification_officer' ) ;
#121 =( NAMED_UNIT ( * ) SI_UNIT ( $, .STERADIAN. ) SOLID_ANGLE_UNIT ( ) );
#122 = APPROVAL_DATE_TIME ( #173, #23 ) ;
#123 = PLANE ( 'NONE',  #36 ) ;
#124 = ORIENTED_EDGE ( 'NONE', *, *, #154, .F. ) ;
#125 = FACE_OUTER_BOUND ( 'NONE', #142, .T. ) ;
#126 = EDGE_CURVE ( 'NONE', #115, #115, #193, .T. ) ;
#127 = CARTESIAN_POINT ( 'NONE',  ( 1.316288464743861212E-13, -4.616918432785521081E-15, 37.69999999999999574 ) ) ;
#128 = EDGE_LOOP ( 'NONE', ( #164 ) ) ;
#129 = SECURITY_CLASSIFICATION ( '', '', #197 ) ;
#130 = DIRECTION ( 'NONE',  ( 0.0000000000000000000, 1.000000000000000000, 0.0000000000000000000 ) ) ;
#131 = CARTESIAN_POINT ( 'NONE',  ( 1.187103655206665183E-14, -4.163799117101000559E-16, 3.399999999999999911 ) ) ;
#132 = MANIFOLD_SOLID_BREP ( 'Corps-Déplacer/Copier1[1]', #2 ) ;
#133 = DESIGN_CONTEXT ( 'detailed design', #214, 'design' ) ;
#134 = CARTESIAN_POINT ( 'NONE',  ( -3.206873584422720269E-32, 0.02499999999999999792, -9.184850993605151827E-18 ) ) ;
#135 = AXIS2_PLACEMENT_3D ( 'NONE', #106, #177, #15 ) ;
#136 = CARTESIAN_POINT ( 'NONE',  ( 2.367900757518973625E-14, 1.499999999999996225, 6.781937314617162649 ) ) ;
#137 = APPROVAL_ROLE ( '' ) ;
#138 = APPLICATION_PROTOCOL_DEFINITION ( 'international standard', 'config_control_design', 1994, #241 ) ;
#139 = AXIS2_PLACEMENT_3D ( 'NONE', #73, #107, #180 ) ;
#140 = APPROVAL_ROLE ( '' ) ;
#141 = FACE_OUTER_BOUND ( 'NONE', #200, .T. ) ;
#142 = EDGE_LOOP ( 'NONE', ( #52 ) ) ;
#143 = CLOSED_SHELL ( 'NONE', ( #243, #148, #33 ) ) ;
#144 = LOCAL_TIME ( 8, 9, 52.00000000000000000, #227 ) ;
#145 = ORIENTED_EDGE ( 'NONE', *, *, #21, .T. ) ;
#146 = CARTESIAN_POINT ( 'NONE',  ( 0.0000000000000000000, 0.0000000000000000000, 0.0000000000000000000 ) ) ;
#147 = DIRECTION ( 'NONE',  ( 0.0000000000000000000, 1.000000000000000000, 0.0000000000000000000 ) ) ;
#148 = ADVANCED_FACE ( 'NONE', ( #37, #111 ), #160, .T. ) ;
#149 = FACE_BOUND ( 'NONE', #128, .T. ) ;
#150 = ADVANCED_FACE ( 'NONE', ( #196, #225 ), #67, .F. ) ;
#151 = CC_DESIGN_APPROVAL ( #172, ( #129 ) ) ;
#152 = DIRECTION ( 'NONE',  ( -4.275831445896958607E-31, -1.000000000000000000, -1.224646799147353207E-16 ) ) ;
#153 = CARTESIAN_POINT ( 'NONE',  ( -2.137915722948479905E-32, 7.498798913309290605E-34, -6.123233995736767885E-18 ) ) ;
#154 = EDGE_CURVE ( 'NONE', #229, #229, #53, .T. ) ;
#155 = PERSON_AND_ORGANIZATION ( #1, #22 ) ;
#156 = CARTESIAN_POINT ( 'NONE',  ( 1.326762908760390423E-13, 1.199999999999998845, 38.00000000000000000 ) ) ;
#157 = APPROVAL_DATE_TIME ( #119, #16 ) ;
#158 = CARTESIAN_POINT ( 'NONE',  ( 9.447029668924834708E-15, 0.7499999999999996669, 2.705736835487429381 ) ) ;
#159 = DIRECTION ( 'NONE',  ( -3.491481338843133355E-15, 1.224646799147353207E-16, -1.000000000000000000 ) ) ;
#160 = CONICAL_SURFACE ( 'NONE', #211, 0.02499999999999999792, 0.2617993877991500740 ) ;
#161 = PERSON_AND_ORGANIZATION ( #1, #22 ) ;
#162 = DIRECTION ( 'NONE',  ( 4.275831445896959482E-31, 1.000000000000000000, 1.224646799147353207E-16 ) ) ;
#163 = COORDINATED_UNIVERSAL_TIME_OFFSET ( 1, 0, .AHEAD. ) ;
#164 = ORIENTED_EDGE ( 'NONE', *, *, #55, .T. ) ;
#165 = ORIENTED_EDGE ( 'NONE', *, *, #154, .T. ) ;
#166 = AXIS2_PLACEMENT_3D ( 'NONE', #184, #20, #222 ) ;
#167 = LOCAL_TIME ( 8, 9, 52.00000000000000000, #42 ) ;
#168 = DIRECTION ( 'NONE',  ( -3.491481338843133355E-15, 1.224646799147353207E-16, -1.000000000000000000 ) ) ;
#169 = CIRCLE ( 'NONE', #18, 1.499999999999996891 ) ;
#170 = CARTESIAN_POINT ( 'NONE',  ( 1.187103655206665183E-14, 0.0000000000000000000, 3.399999999999999911 ) ) ;
#171 = DIRECTION ( 'NONE',  ( 4.275831445896958607E-31, 1.000000000000000000, 1.224646799147353207E-16 ) ) ;
#172 = APPROVAL ( #46, 'UNSPECIFIED' ) ;
#173 = DATE_AND_TIME ( #99, #238 ) ;
#174 = CALENDAR_DATE ( 2021, 24, 11 ) ;
#175 =( NAMED_UNIT ( * ) PLANE_ANGLE_UNIT ( ) SI_UNIT ( $, .RADIAN. ) );
#176 = CALENDAR_DATE ( 2021, 24, 11 ) ;
#177 = DIRECTION ( 'NONE',  ( 3.491481338843133355E-15, -1.224646799147353207E-16, 1.000000000000000000 ) ) ;
#178 = APPLICATION_PROTOCOL_DEFINITION ( 'international standard', 'config_control_design', 1994, #214 ) ;
#179 = DIRECTION ( 'NONE',  ( -4.275831445896958607E-31, -1.000000000000000000, -1.224646799147353207E-16 ) ) ;
#180 = DIRECTION ( 'NONE',  ( 0.0000000000000000000, 1.000000000000000000, 0.0000000000000000000 ) ) ;
#181 = CC_DESIGN_PERSON_AND_ORGANIZATION_ASSIGNMENT ( #41, #60, ( #228 ) ) ;
#182 = DIRECTION ( 'NONE',  ( 0.0000000000000000000, 1.000000000000000000, 0.0000000000000000000 ) ) ;
#183 = CYLINDRICAL_SURFACE ( 'NONE', #199, 0.7500000000000005551 ) ;
#184 = CARTESIAN_POINT ( 'NONE',  ( 1.326762908760390423E-13, -4.653657836759941941E-15, 38.00000000000000000 ) ) ;
#185 = CIRCLE ( 'NONE', #44, 0.02499999999999999792 ) ;
#186 = DIRECTION ( 'NONE',  ( 1.000000000000000000, 0.0000000000000000000, 0.0000000000000000000 ) ) ;
#187 = PRODUCT_DEFINITION_SHAPE ( 'NONE', 'NONE',  #228 ) ;
#188 = UNCERTAINTY_MEASURE_WITH_UNIT (LENGTH_MEASURE( 1.000000000000000082E-05 ), #7, 'distance_accuracy_value', 'NONE');
#189 = DIRECTION ( 'NONE',  ( 3.491481338843133355E-15, -1.224646799147353207E-16, 1.000000000000000000 ) ) ;
#190 = CALENDAR_DATE ( 2021, 24, 11 ) ;
#191 = VERTEX_POINT ( 'NONE', #156 ) ;
#192 = DIRECTION ( 'NONE',  ( 4.355100981429076768E-31, 1.000000000000000000, 1.224646799147353207E-16 ) ) ;
#193 = CIRCLE ( 'NONE', #90, 0.7500000000000011102 ) ;
#194 = APPROVAL_PERSON_ORGANIZATION ( #62, #172, #137 ) ;
#195 = DATE_TIME_ROLE ( 'classification_date' ) ;
#196 = FACE_OUTER_BOUND ( 'NONE', #219, .T. ) ;
#197 = SECURITY_CLASSIFICATION_LEVEL ( 'unclassified' ) ;
#198 = CARTESIAN_POINT ( 'NONE',  ( 9.447029668924834708E-15, 1.564568402778413460E-15, 2.705736835487429381 ) ) ;
#199 = AXIS2_PLACEMENT_3D ( 'NONE', #146, #168, #69 ) ;
#200 = EDGE_LOOP ( 'NONE', ( #165 ) ) ;
#201 = CC_DESIGN_PERSON_AND_ORGANIZATION_ASSIGNMENT ( #206, #9, ( #205 ) ) ;
#202 = ORIENTED_EDGE ( 'NONE', *, *, #95, .F. ) ;
#203 = DIRECTION ( 'NONE',  ( -3.491481338843133355E-15, 1.224646799147353207E-16, -1.000000000000000000 ) ) ;
#204 = AXIS2_PLACEMENT_3D ( 'NONE', #153, #94, #152 ) ;
#205 = PRODUCT ( '976374', '976374', '', ( #117 ) ) ;
#206 = PERSON_AND_ORGANIZATION ( #1, #22 ) ;
#207 = COORDINATED_UNIVERSAL_TIME_OFFSET ( 1, 0, .AHEAD. ) ;
#208 = VERTEX_POINT ( 'NONE', #136 ) ;
#209 = ADVANCED_FACE ( 'NONE', ( #77 ), #96, .F. ) ;
#210 = DIRECTION ( 'NONE',  ( -3.491481338843133355E-15, 1.224646799147353207E-16, -1.000000000000000000 ) ) ;
#211 = AXIS2_PLACEMENT_3D ( 'NONE', #112, #189, #24 ) ;
#212 = PRODUCT_DEFINITION_FORMATION_WITH_SPECIFIED_SOURCE ( 'ANY', '', #205, .NOT_KNOWN. ) ;
#213 = DATE_AND_TIME ( #190, #144 ) ;
#214 = APPLICATION_CONTEXT ( 'configuration controlled 3d designs of mechanical parts and assemblies' ) ;
#215 = PERSON_AND_ORGANIZATION ( #1, #22 ) ;
#216 = FACE_OUTER_BOUND ( 'NONE', #87, .T. ) ;
#217 = ORIENTED_EDGE ( 'NONE', *, *, #95, .T. ) ;
#218 = EDGE_LOOP ( 'NONE', ( #237 ) ) ;
#219 = EDGE_LOOP ( 'NONE', ( #217 ) ) ;
#220 = EDGE_LOOP ( 'NONE', ( #145 ) ) ;
#221 =( GEOMETRIC_REPRESENTATION_CONTEXT ( 3 ) GLOBAL_UNCERTAINTY_ASSIGNED_CONTEXT ( ( #188 ) ) GLOBAL_UNIT_ASSIGNED_CONTEXT ( ( #7, #175, #121 ) ) REPRESENTATION_CONTEXT ( 'NONE', 'WORKASPACE' ) );
#222 = DIRECTION ( 'NONE',  ( 0.0000000000000000000, 1.000000000000000000, 0.0000000000000000000 ) ) ;
#223 = PRODUCT_RELATED_PRODUCT_CATEGORY ( 'detail', '', ( #205 ) ) ;
#224 = VERTEX_POINT ( 'NONE', #134 ) ;
#225 = FACE_OUTER_BOUND ( 'NONE', #86, .T. ) ;
#226 = LOCAL_TIME ( 8, 9, 52.00000000000000000, #163 ) ;
#227 = COORDINATED_UNIVERSAL_TIME_OFFSET ( 1, 0, .AHEAD. ) ;
#228 = PRODUCT_DEFINITION ( 'UNKNOWN', '', #212, #133 ) ;
#229 = VERTEX_POINT ( 'NONE', #230 ) ;
#230 = CARTESIAN_POINT ( 'NONE',  ( 9.447029668924834708E-15, 0.7499999999999996669, 2.705736835487429381 ) ) ;
#231 = CALENDAR_DATE ( 2021, 24, 11 ) ;
#232 = CARTESIAN_POINT ( 'NONE',  ( 1.326762908760390423E-13, 8.998558695971103225E-33, 38.00000000000000000 ) ) ;
#233 = PERSON_AND_ORGANIZATION ( #1, #22 ) ;
#234 = FACE_OUTER_BOUND ( 'NONE', #240, .T. ) ;
#235 = EDGE_CURVE ( 'NONE', #224, #224, #185, .T. ) ;
#236 = ORIENTED_EDGE ( 'NONE', *, *, #76, .T. ) ;
#237 = ORIENTED_EDGE ( 'NONE', *, *, #76, .F. ) ;
#238 = LOCAL_TIME ( 8, 9, 52.00000000000000000, #40 ) ;
#239 = ORIENTED_EDGE ( 'NONE', *, *, #235, .T. ) ;
#240 = EDGE_LOOP ( 'NONE', ( #124 ) ) ;
#241 = APPLICATION_CONTEXT ( 'configuration controlled 3d designs of mechanical parts and assemblies' ) ;
#242 = CIRCLE ( 'NONE', #139, 0.7500000000000000000 ) ;
#243 = ADVANCED_FACE ( 'NONE', ( #5 ), #65, .F. ) ;
ENDSEC;
END-ISO-10303-21;
