ISO-10303-21;
HEADER;
FILE_DESCRIPTION (( 'STEP AP203' ),
    '1' );
FILE_NAME ('976373.step',
    '2021-11-24T06:51:33',
    ( '' ),
    ( '' ),
    'SwSTEP 2.0',
    'SolidWorks 2019',
    '' );
FILE_SCHEMA (( 'CONFIG_CONTROL_DESIGN' ));
ENDSEC;

DATA;
#1 = APPLICATION_CONTEXT ( 'configuration controlled 3d designs of mechanical parts and assemblies' ) ;
#2 = DIRECTION ( 'NONE',  ( 0.0000000000000000000, 1.000000000000000000, 0.0000000000000000000 ) ) ;
#3 = DIRECTION ( 'NONE',  ( -3.491481338843133355E-15, 1.224646799147353207E-16, -1.000000000000000000 ) ) ;
#4 = COORDINATED_UNIVERSAL_TIME_OFFSET ( 1, 0, .AHEAD. ) ;
#5 = AXIS2_PLACEMENT_3D ( 'NONE', #96, #3, #39 ) ;
#6 = ADVANCED_FACE ( 'NONE', ( #242 ), #20, .F. ) ;
#7 = CYLINDRICAL_SURFACE ( 'NONE', #206, 1.500000000000000000 ) ;
#8 = VERTEX_POINT ( 'NONE', #47 ) ;
#9 = COORDINATED_UNIVERSAL_TIME_OFFSET ( 1, 0, .AHEAD. ) ;
#10 = PERSON_AND_ORGANIZATION_ROLE ( 'classification_officer' ) ;
#11 = ADVANCED_FACE ( 'NONE', ( #138, #58 ), #113, .T. ) ;
#12 = EDGE_LOOP ( 'NONE', ( #211 ) ) ;
#13 = CARTESIAN_POINT ( 'NONE',  ( 1.187103655206665183E-14, -4.163799117101000066E-16, 3.399999999999999467 ) ) ;
#14 = APPLICATION_CONTEXT ( 'configuration controlled 3d designs of mechanical parts and assemblies' ) ;
#15 = ORIENTED_EDGE ( 'NONE', *, *, #116, .F. ) ;
#16 = DIRECTION ( 'NONE',  ( -4.275831445896958607E-31, -1.000000000000000000, -1.224646799147353207E-16 ) ) ;
#17 = AXIS2_PLACEMENT_3D ( 'NONE', #121, #157, #230 ) ;
#18 = FACE_BOUND ( 'NONE', #227, .T. ) ;
#19 = FACE_OUTER_BOUND ( 'NONE', #186, .T. ) ;
#20 = PLANE ( 'NONE',  #175 ) ;
#21 = AXIS2_PLACEMENT_3D ( 'NONE', #118, #60, #141 ) ;
#22 = LOCAL_TIME ( 7, 51, 33.00000000000000000, #200 ) ;
#23 = CARTESIAN_POINT ( 'NONE',  ( 0.0000000000000000000, 0.0000000000000000000, 0.0000000000000000000 ) ) ;
#24 = ADVANCED_FACE ( 'NONE', ( #55, #18 ), #33, .T. ) ;
#25 = LOCAL_TIME ( 7, 51, 33.00000000000000000, #4 ) ;
#26 = DIRECTION ( 'NONE',  ( 0.0000000000000000000, 1.000000000000000000, 0.0000000000000000000 ) ) ;
#27 = CARTESIAN_POINT ( 'NONE',  ( 2.367900757518973625E-14, 1.499999999999996225, 6.781937314617162649 ) ) ;
#28 = PERSON_AND_ORGANIZATION_ROLE ( 'creator' ) ;
#29 = CIRCLE ( 'NONE', #81, 0.7500000000000011102 ) ;
#30 = DATE_AND_TIME ( #181, #22 ) ;
#31 = ORIENTED_EDGE ( 'NONE', *, *, #130, .F. ) ;
#32 = COORDINATED_UNIVERSAL_TIME_OFFSET ( 1, 0, .AHEAD. ) ;
#33 = CONICAL_SURFACE ( 'NONE', #93, 1.200000000000003286, 0.7853981633974453924 ) ;
#34 = EDGE_LOOP ( 'NONE', ( #68 ) ) ;
#35 = ORIENTED_EDGE ( 'NONE', *, *, #158, .T. ) ;
#36 = ORIENTED_EDGE ( 'NONE', *, *, #158, .F. ) ;
#37 = CIRCLE ( 'NONE', #179, 0.07499999999999999722 ) ;
#38 = DIRECTION ( 'NONE',  ( 3.491481338843133355E-15, -1.224646799147353207E-16, 1.000000000000000000 ) ) ;
#39 = DIRECTION ( 'NONE',  ( 4.355100981429076768E-31, 1.000000000000000000, 1.224646799147353207E-16 ) ) ;
#40 = ADVANCED_FACE ( 'NONE', ( #243 ), #120, .F. ) ;
#41 = DIRECTION ( 'NONE',  ( -4.275831445896958607E-31, -1.000000000000000000, -1.224646799147353207E-16 ) ) ;
#42 = MANIFOLD_SOLID_BREP ( 'Corps-Déplacer/Copier1[1]', #223 ) ;
#43 = DIRECTION ( 'NONE',  ( -3.491481338843133355E-15, 1.224646799147353207E-16, -1.000000000000000000 ) ) ;
#44 = AXIS2_PLACEMENT_3D ( 'NONE', #228, #225, #173 ) ;
#45 = CIRCLE ( 'NONE', #135, 1.499999999999996891 ) ;
#46 = CC_DESIGN_PERSON_AND_ORGANIZATION_ASSIGNMENT ( #183, #10, ( #241 ) ) ;
#47 = CARTESIAN_POINT ( 'NONE',  ( 8.795510381412775673E-15, 0.7499999999999997780, 2.519134295108985899 ) ) ;
#48 = MECHANICAL_CONTEXT ( 'NONE', #14, 'mechanical' ) ;
#49 = CALENDAR_DATE ( 2021, 24, 11 ) ;
#50 = APPROVAL ( #131, 'UNSPECIFIED' ) ;
#51 = DATE_TIME_ROLE ( 'classification_date' ) ;
#52 = PERSON_AND_ORGANIZATION ( #197, #182 ) ;
#53 = DESIGN_CONTEXT ( 'detailed design', #1, 'design' ) ;
#54 = TOROIDAL_SURFACE ( 'NONE', #5, 8.750000000000000000, 8.000000000000000000 ) ;
#55 = FACE_OUTER_BOUND ( 'NONE', #224, .T. ) ;
#56 = FACE_BOUND ( 'NONE', #108, .T. ) ;
#57 = AXIS2_PLACEMENT_3D ( 'NONE', #207, #240, #208 ) ;
#58 = FACE_OUTER_BOUND ( 'NONE', #190, .T. ) ;
#59 = ADVANCED_FACE ( 'NONE', ( #209, #56 ), #174, .T. ) ;
#60 = DIRECTION ( 'NONE',  ( 3.491481338843133355E-15, -1.224646799147353207E-16, 1.000000000000000000 ) ) ;
#61 = DIRECTION ( 'NONE',  ( -3.491481338843133355E-15, 1.224646799147353207E-16, -1.000000000000000000 ) ) ;
#62 = VERTEX_POINT ( 'NONE', #177 ) ;
#63 = APPLICATION_PROTOCOL_DEFINITION ( 'international standard', 'config_control_design', 1994, #1 ) ;
#64 = CC_DESIGN_PERSON_AND_ORGANIZATION_ASSIGNMENT ( #52, #149, ( #117 ) ) ;
#65 = DATE_AND_TIME ( #219, #106 ) ;
#66 = APPROVAL_ROLE ( '' ) ;
#67 = ADVANCED_FACE ( 'NONE', ( #74, #210 ), #54, .F. ) ;
#68 = ORIENTED_EDGE ( 'NONE', *, *, #86, .T. ) ;
#69 = CALENDAR_DATE ( 2021, 24, 11 ) ;
#70 = APPROVAL_PERSON_ORGANIZATION ( #133, #184, #66 ) ;
#71 = EDGE_LOOP ( 'NONE', ( #36 ) ) ;
#72 = LOCAL_TIME ( 7, 51, 33.00000000000000000, #82 ) ;
#73 = PLANE ( 'NONE',  #191 ) ;
#74 = FACE_OUTER_BOUND ( 'NONE', #97, .T. ) ;
#75 = CC_DESIGN_DATE_AND_TIME_ASSIGNMENT ( #87, #51, ( #241 ) ) ;
#76 = DIRECTION ( 'NONE',  ( -3.491481338843133355E-15, 1.224646799147353207E-16, -1.000000000000000000 ) ) ;
#77 = PLANE ( 'NONE',  #17 ) ;
#78 = ORIENTED_EDGE ( 'NONE', *, *, #111, .F. ) ;
#79 = FACE_OUTER_BOUND ( 'NONE', #71, .T. ) ;
#80 = CALENDAR_DATE ( 2021, 24, 11 ) ;
#81 = AXIS2_PLACEMENT_3D ( 'NONE', #13, #92, #2 ) ;
#82 = COORDINATED_UNIVERSAL_TIME_OFFSET ( 1, 0, .AHEAD. ) ;
#83 = CARTESIAN_POINT ( 'NONE',  ( 0.0000000000000000000, 0.0000000000000000000, 0.0000000000000000000 ) ) ;
#84 = CIRCLE ( 'NONE', #44, 1.500000000000003331 ) ;
#85 = AXIS2_PLACEMENT_3D ( 'NONE', #99, #122, #124 ) ;
#86 = EDGE_CURVE ( 'NONE', #103, #103, #37, .T. ) ;
#87 = DATE_AND_TIME ( #69, #90 ) ;
#88 = ORIENTED_EDGE ( 'NONE', *, *, #86, .F. ) ;
#89 = CIRCLE ( 'NONE', #128, 0.7500000000000001110 ) ;
#90 = LOCAL_TIME ( 7, 51, 33.00000000000000000, #9 ) ;
#91 = PRODUCT_DEFINITION_SHAPE ( 'NONE', 'NONE',  #137 ) ;
#92 = DIRECTION ( 'NONE',  ( -3.491481338843133355E-15, 1.224646799147353207E-16, -1.000000000000000000 ) ) ;
#93 = AXIS2_PLACEMENT_3D ( 'NONE', #140, #61, #115 ) ;
#94 = ORIENTED_EDGE ( 'NONE', *, *, #111, .T. ) ;
#95 = EDGE_LOOP ( 'NONE', ( #94 ) ) ;
#96 = CARTESIAN_POINT ( 'NONE',  ( 1.187103655206665183E-14, 0.0000000000000000000, 3.399999999999999911 ) ) ;
#97 = EDGE_LOOP ( 'NONE', ( #114 ) ) ;
#98 = DIRECTION ( 'NONE',  ( -3.491481338843133355E-15, 1.224646799147353207E-16, -1.000000000000000000 ) ) ;
#99 = CARTESIAN_POINT ( 'NONE',  ( 1.326762908760390423E-13, -4.653657836759941941E-15, 38.00000000000000000 ) ) ;
#100 = PERSON_AND_ORGANIZATION_ROLE ( 'creator' ) ;
#101 = DATE_AND_TIME ( #49, #72 ) ;
#102 = CC_DESIGN_APPROVAL ( #145, ( #137 ) ) ;
#103 = VERTEX_POINT ( 'NONE', #146 ) ;
#104 = FACE_OUTER_BOUND ( 'NONE', #202, .T. ) ;
#105 = CC_DESIGN_PERSON_AND_ORGANIZATION_ASSIGNMENT ( #215, #100, ( #137 ) ) ;
#106 = LOCAL_TIME ( 7, 51, 33.00000000000000000, #32 ) ;
#107 = APPROVAL_DATE_TIME ( #65, #184 ) ;
#108 = EDGE_LOOP ( 'NONE', ( #88 ) ) ;
#109 = PERSON_AND_ORGANIZATION ( #197, #182 ) ;
#110 = ADVANCED_BREP_SHAPE_REPRESENTATION ( '976373', ( #42, #204, #238 ), #234 ) ;
#111 = EDGE_CURVE ( 'NONE', #159, #159, #166, .T. ) ;
#112 = ORIENTED_EDGE ( 'NONE', *, *, #142, .F. ) ;
#113 = CYLINDRICAL_SURFACE ( 'NONE', #57, 0.7500000000000006661 ) ;
#114 = ORIENTED_EDGE ( 'NONE', *, *, #172, .T. ) ;
#115 = DIRECTION ( 'NONE',  ( 0.0000000000000000000, 1.000000000000000000, 0.0000000000000000000 ) ) ;
#116 = EDGE_CURVE ( 'NONE', #8, #8, #89, .T. ) ;
#117 = PRODUCT_DEFINITION_FORMATION_WITH_SPECIFIED_SOURCE ( 'ANY', '', #136, .NOT_KNOWN. ) ;
#118 = CARTESIAN_POINT ( 'NONE',  ( -2.137915722948479358E-32, 7.498798913309288894E-34, -6.123233995736766344E-18 ) ) ;
#119 = EDGE_LOOP ( 'NONE', ( #237 ) ) ;
#120 = PLANE ( 'NONE',  #205 ) ;
#121 = CARTESIAN_POINT ( 'NONE',  ( 1.326762908760390423E-13, 8.998558695971103225E-33, 38.00000000000000000 ) ) ;
#122 = DIRECTION ( 'NONE',  ( -3.491481338843133355E-15, 1.224646799147353207E-16, -1.000000000000000000 ) ) ;
#123 = APPROVAL_DATE_TIME ( #101, #145 ) ;
#124 = DIRECTION ( 'NONE',  ( 0.0000000000000000000, 1.000000000000000000, 0.0000000000000000000 ) ) ;
#125 = ADVANCED_FACE ( 'NONE', ( #19 ), #73, .T. ) ;
#126 = UNCERTAINTY_MEASURE_WITH_UNIT (LENGTH_MEASURE( 1.000000000000000082E-05 ), #178, 'distance_accuracy_value', 'NONE');
#127 = VERTEX_POINT ( 'NONE', #27 ) ;
#128 = AXIS2_PLACEMENT_3D ( 'NONE', #176, #76, #153 ) ;
#129 = VERTEX_POINT ( 'NONE', #195 ) ;
#130 = EDGE_CURVE ( 'NONE', #194, #194, #84, .T. ) ;
#131 = APPROVAL_STATUS ( 'not_yet_approved' ) ;
#132 = APPROVAL_ROLE ( '' ) ;
#133 = PERSON_AND_ORGANIZATION ( #197, #182 ) ;
#134 = PRODUCT_RELATED_PRODUCT_CATEGORY ( 'detail', '', ( #136 ) ) ;
#135 = AXIS2_PLACEMENT_3D ( 'NONE', #143, #216, #26 ) ;
#136 = PRODUCT ( '976373', '976373', '', ( #48 ) ) ;
#137 = PRODUCT_DEFINITION ( 'UNKNOWN', '', #117, #53 ) ;
#138 = FACE_OUTER_BOUND ( 'NONE', #12, .T. ) ;
#139 = CARTESIAN_POINT ( 'NONE',  ( 8.795510381412775673E-15, -3.085049751127543794E-16, 2.519134295108985899 ) ) ;
#140 = CARTESIAN_POINT ( 'NONE',  ( 1.326762908760390423E-13, -4.653657836759941941E-15, 38.00000000000000000 ) ) ;
#141 = DIRECTION ( 'NONE',  ( -4.275831445896959482E-31, -1.000000000000000000, -1.224646799147352961E-16 ) ) ;
#142 = EDGE_CURVE ( 'NONE', #62, #62, #29, .T. ) ;
#143 = CARTESIAN_POINT ( 'NONE',  ( 2.367900757518973625E-14, -8.305477824363904586E-16, 6.781937314617162649 ) ) ;
#144 = CC_DESIGN_APPROVAL ( #50, ( #241 ) ) ;
#145 = APPROVAL ( #213, 'UNSPECIFIED' ) ;
#146 = CARTESIAN_POINT ( 'NONE',  ( 1.068957861474239405E-32, 0.07499999999999999722, 3.061616997868381631E-18 ) ) ;
#147 = CARTESIAN_POINT ( 'NONE',  ( 1.316288464743861212E-13, 1.499999999999998668, 37.69999999999999574 ) ) ;
#148 = PERSON_AND_ORGANIZATION ( #197, #182 ) ;
#149 = PERSON_AND_ORGANIZATION_ROLE ( 'design_supplier' ) ;
#150 = DATE_AND_TIME ( #80, #25 ) ;
#151 = ORIENTED_EDGE ( 'NONE', *, *, #130, .T. ) ;
#152 = CARTESIAN_POINT ( 'NONE',  ( 8.795510381412775673E-15, -4.748648962153721488E-32, 2.519134295108985899 ) ) ;
#153 = DIRECTION ( 'NONE',  ( 0.0000000000000000000, 1.000000000000000000, 0.0000000000000000000 ) ) ;
#154 = EDGE_LOOP ( 'NONE', ( #112 ) ) ;
#155 = DIRECTION ( 'NONE',  ( 4.275831445896958607E-31, 1.000000000000000000, 1.224646799147352961E-16 ) ) ;
#156 = ADVANCED_FACE ( 'NONE', ( #79 ), #77, .F. ) ;
#157 = DIRECTION ( 'NONE',  ( -3.491481338843133355E-15, 1.224646799147353207E-16, -1.000000000000000000 ) ) ;
#158 = EDGE_CURVE ( 'NONE', #129, #129, #221, .T. ) ;
#159 = VERTEX_POINT ( 'NONE', #193 ) ;
#160 = DIRECTION ( 'NONE',  ( 4.275831445896959482E-31, 1.000000000000000000, 1.224646799147353207E-16 ) ) ;
#161 = APPLICATION_PROTOCOL_DEFINITION ( 'international standard', 'config_control_design', 1994, #14 ) ;
#162 =( NAMED_UNIT ( * ) PLANE_ANGLE_UNIT ( ) SI_UNIT ( $, .RADIAN. ) );
#163 = CC_DESIGN_SECURITY_CLASSIFICATION ( #241, ( #117 ) ) ;
#164 = SECURITY_CLASSIFICATION_LEVEL ( 'unclassified' ) ;
#165 = SHAPE_DEFINITION_REPRESENTATION ( #91, #110 ) ;
#166 = CIRCLE ( 'NONE', #196, 0.7500000000000001110 ) ;
#167 = CARTESIAN_POINT ( 'NONE',  ( -2.137915722948479358E-32, 7.498798913309288894E-34, -6.123233995736766344E-18 ) ) ;
#168 = CC_DESIGN_APPROVAL ( #184, ( #117 ) ) ;
#169 = EDGE_LOOP ( 'NONE', ( #185 ) ) ;
#170 = CARTESIAN_POINT ( 'NONE',  ( 8.795510381412775673E-15, -4.748648962153721488E-32, 2.519134295108985899 ) ) ;
#171 = DIRECTION ( 'NONE',  ( -3.491481338843133355E-15, 1.224646799147353207E-16, -1.000000000000000000 ) ) ;
#172 = EDGE_CURVE ( 'NONE', #127, #127, #45, .T. ) ;
#173 = DIRECTION ( 'NONE',  ( 0.0000000000000000000, 1.000000000000000000, 0.0000000000000000000 ) ) ;
#174 = CONICAL_SURFACE ( 'NONE', #21, 0.07499999999999999722, 0.2617993877991501295 ) ;
#175 = AXIS2_PLACEMENT_3D ( 'NONE', #187, #188, #41 ) ;
#176 = CARTESIAN_POINT ( 'NONE',  ( 8.795510381412775673E-15, -3.085049751127543794E-16, 2.519134295108985899 ) ) ;
#177 = CARTESIAN_POINT ( 'NONE',  ( 1.187103655206665183E-14, 0.7500000000000006661, 3.399999999999999467 ) ) ;
#178 =( LENGTH_UNIT ( ) NAMED_UNIT ( * ) SI_UNIT ( .MILLI., .METRE. ) );
#179 = AXIS2_PLACEMENT_3D ( 'NONE', #167, #98, #155 ) ;
#180 = FACE_OUTER_BOUND ( 'NONE', #119, .T. ) ;
#181 = CALENDAR_DATE ( 2021, 24, 11 ) ;
#182 = ORGANIZATION ( 'UNSPECIFIED', 'UNSPECIFIED', '' ) ;
#183 = PERSON_AND_ORGANIZATION ( #197, #182 ) ;
#184 = APPROVAL ( #203, 'UNSPECIFIED' ) ;
#185 = ORIENTED_EDGE ( 'NONE', *, *, #116, .T. ) ;
#186 = EDGE_LOOP ( 'NONE', ( #78 ) ) ;
#187 = CARTESIAN_POINT ( 'NONE',  ( -1.068957861474239679E-32, 3.749399456654644447E-34, -3.061616997868383172E-18 ) ) ;
#188 = DIRECTION ( 'NONE',  ( 3.491481338843133355E-15, -1.224646799147353207E-16, 1.000000000000000000 ) ) ;
#189 = DIRECTION ( 'NONE',  ( 0.0000000000000000000, 1.000000000000000000, 0.0000000000000000000 ) ) ;
#190 = EDGE_LOOP ( 'NONE', ( #15 ) ) ;
#191 = AXIS2_PLACEMENT_3D ( 'NONE', #152, #212, #229 ) ;
#192 = APPROVAL_PERSON_ORGANIZATION ( #220, #50, #132 ) ;
#193 = CARTESIAN_POINT ( 'NONE',  ( 8.795510381412775673E-15, 0.7499999999999997780, 2.519134295108985899 ) ) ;
#194 = VERTEX_POINT ( 'NONE', #147 ) ;
#195 = CARTESIAN_POINT ( 'NONE',  ( 1.326762908760390423E-13, 1.199999999999998845, 38.00000000000000000 ) ) ;
#196 = AXIS2_PLACEMENT_3D ( 'NONE', #139, #171, #189 ) ;
#197 = PERSON ( 'UNSPECIFIED', 'UNSPECIFIED', 'UNSPECIFIED', ('UNSPECIFIED'), ('UNSPECIFIED'), ('UNSPECIFIED') ) ;
#198 = DIRECTION ( 'NONE',  ( 1.000000000000000000, 0.0000000000000000000, 0.0000000000000000000 ) ) ;
#199 = APPROVAL_DATE_TIME ( #30, #50 ) ;
#200 = COORDINATED_UNIVERSAL_TIME_OFFSET ( 1, 0, .AHEAD. ) ;
#201 = CLOSED_SHELL ( 'NONE', ( #6, #59, #125 ) ) ;
#202 = EDGE_LOOP ( 'NONE', ( #151 ) ) ;
#203 = APPROVAL_STATUS ( 'not_yet_approved' ) ;
#204 = MANIFOLD_SOLID_BREP ( 'Corps-Déplacer/Copier1[2]', #201 ) ;
#205 = AXIS2_PLACEMENT_3D ( 'NONE', #170, #38, #16 ) ;
#206 = AXIS2_PLACEMENT_3D ( 'NONE', #83, #43, #160 ) ;
#207 = CARTESIAN_POINT ( 'NONE',  ( 0.0000000000000000000, 0.0000000000000000000, 0.0000000000000000000 ) ) ;
#208 = DIRECTION ( 'NONE',  ( 4.275831445896958607E-31, 1.000000000000000000, 1.224646799147353207E-16 ) ) ;
#209 = FACE_OUTER_BOUND ( 'NONE', #95, .T. ) ;
#210 = FACE_OUTER_BOUND ( 'NONE', #154, .T. ) ;
#211 = ORIENTED_EDGE ( 'NONE', *, *, #142, .T. ) ;
#212 = DIRECTION ( 'NONE',  ( 3.491481338843133355E-15, -1.224646799147353207E-16, 1.000000000000000000 ) ) ;
#213 = APPROVAL_STATUS ( 'not_yet_approved' ) ;
#214 = APPROVAL_PERSON_ORGANIZATION ( #218, #145, #231 ) ;
#215 = PERSON_AND_ORGANIZATION ( #197, #182 ) ;
#216 = DIRECTION ( 'NONE',  ( -3.491481338843133355E-15, 1.224646799147353207E-16, -1.000000000000000000 ) ) ;
#217 = PERSON_AND_ORGANIZATION_ROLE ( 'design_owner' ) ;
#218 = PERSON_AND_ORGANIZATION ( #197, #182 ) ;
#219 = CALENDAR_DATE ( 2021, 24, 11 ) ;
#220 = PERSON_AND_ORGANIZATION ( #197, #182 ) ;
#221 = CIRCLE ( 'NONE', #85, 1.200000000000003286 ) ;
#222 = CC_DESIGN_PERSON_AND_ORGANIZATION_ASSIGNMENT ( #109, #28, ( #117 ) ) ;
#223 = CLOSED_SHELL ( 'NONE', ( #40, #11, #67, #226, #24, #156 ) ) ;
#224 = EDGE_LOOP ( 'NONE', ( #31 ) ) ;
#225 = DIRECTION ( 'NONE',  ( -3.491481338843133355E-15, 1.224646799147353207E-16, -1.000000000000000000 ) ) ;
#226 = ADVANCED_FACE ( 'NONE', ( #180, #104 ), #7, .T. ) ;
#227 = EDGE_LOOP ( 'NONE', ( #35 ) ) ;
#228 = CARTESIAN_POINT ( 'NONE',  ( 1.316288464743861212E-13, -4.616918432785521081E-15, 37.69999999999999574 ) ) ;
#229 = DIRECTION ( 'NONE',  ( -4.275831445896958607E-31, -1.000000000000000000, -1.224646799147353207E-16 ) ) ;
#230 = DIRECTION ( 'NONE',  ( 4.275831445896958607E-31, 1.000000000000000000, 1.224646799147353207E-16 ) ) ;
#231 = APPROVAL_ROLE ( '' ) ;
#232 = DIRECTION ( 'NONE',  ( 0.0000000000000000000, 0.0000000000000000000, 1.000000000000000000 ) ) ;
#233 = CC_DESIGN_PERSON_AND_ORGANIZATION_ASSIGNMENT ( #148, #217, ( #136 ) ) ;
#234 =( GEOMETRIC_REPRESENTATION_CONTEXT ( 3 ) GLOBAL_UNCERTAINTY_ASSIGNED_CONTEXT ( ( #126 ) ) GLOBAL_UNIT_ASSIGNED_CONTEXT ( ( #178, #162, #235 ) ) REPRESENTATION_CONTEXT ( 'NONE', 'WORKASPACE' ) );
#235 =( NAMED_UNIT ( * ) SI_UNIT ( $, .STERADIAN. ) SOLID_ANGLE_UNIT ( ) );
#236 = DATE_TIME_ROLE ( 'creation_date' ) ;
#237 = ORIENTED_EDGE ( 'NONE', *, *, #172, .F. ) ;
#238 = AXIS2_PLACEMENT_3D ( 'NONE', #23, #232, #198 ) ;
#239 = CC_DESIGN_DATE_AND_TIME_ASSIGNMENT ( #150, #236, ( #137 ) ) ;
#240 = DIRECTION ( 'NONE',  ( -3.491481338843133355E-15, 1.224646799147353207E-16, -1.000000000000000000 ) ) ;
#241 = SECURITY_CLASSIFICATION ( '', '', #164 ) ;
#242 = FACE_OUTER_BOUND ( 'NONE', #34, .T. ) ;
#243 = FACE_OUTER_BOUND ( 'NONE', #169, .T. ) ;
ENDSEC;
END-ISO-10303-21;
